Faceless Man
Creed
Acordes

Subida por esteban1985
Álbum: Human Clay ( 1999)


Más Versiones
Ver. 2 Ver. 3 Ver. 4 Ver. 5 Ver. 6

Cambiar Cifrado
Americano Latino

Cambiar Tonalidad
-1 +1

Partir Pantalla Imprimir FAQ

+A
-A


Ver solo la LETRA
Tuning- DADAdd

Intro / Verse
Play 7x Finger Picking
d--7p0--------0---------------------------------
d--0----810-----10-----------------------------
A--------------------0--9h10--1012-12----------
D--------------------------------------0--------
A-----------------------------------------0-----
D--0--------------------0--------------------0--

8th Time
d--7p0--------0--------------------------------
d--0----810-----10----------------------------
A--------------------0--9h10-10p9--9-----------
D-------------------------------------0--------
A----------------------------------------0-----
D--0--------------------0-------------------0--


Chorus
Play 2x
d--0--0-0-0--0-0-0-0--5-0-0--5--5-5-5--5-5-5/45-5/7-7-74--4-4--4-
d--0--0-0-0--0-0-0-0--5-0-0--0--0-0-0--0-0-0-0-0-0-0-0-0-0--0-0--0-
A--5--5-5-5--5-5-5-5--5-5-0--0--0-0-0--0-0-0-0-0-0-0-0-0-0--0-0--0-
D--5--5-5-5--5-5-5-5--5-5-0--0--0-0-0--0-0-0-0-0-0-0-0-0-0--0-0--0-
A--3------3--------3--3------0------0--0-----0-0-0-0-0-0-0--0-0--0-
D--x------x--------x---------5------5--5----/45-5/7-7-7-0--0-0--0-

d--54-4-4-4-4-4--4-4--4-54-4-4-4-4-4--4-4--4--
d--0-0-0-0-0-0-0--0-0--0-0-0-0-0-0-0-0--0-0--0--
A--0-0-0-0-0-0-0--0-0--0-0-0-0-0-0-0-0--0-0--0--
D--0-0-0-0-0-0-0--0-0--0-0-0-0-0-0-0-0--0-0--0--
A--0-0-0-0-0-0-0--0-0--0-0-0-0-0-0-0-0--0-0--0--
D--54-4-4-4-4-0--0-0--0-54-4-4-4-4-0--0-0--0--


Play 2x
d---------------0-----------0----5--5-5-5--5-5-5/45-5/7-7-74--4-4--
d-------------0---------------0--0--0-0-0--0-0-0-0-0-0-0-0-0-0--0-0--
A-----------5-------------5------0--0-0-0--0-0-0-0-0-0-0-0-0-0--0-0--
D---------5-------5-----5--------0--0-0-0--0-0-0-0-0-0-0-0-0-0--0-0--
A--(3)-3-------------3-----------0------0--0-----0-0-0-0-0-0-0--0-0--
D--------------------------------5------5--5----/45-5/7-7-7-0--0-0--

d--4--54-4-4-4-4-4--4-4--4-54-4-4-4-4-4--4-4--4--
d--0--0-0-0-0-0-0-0--0-0--0-0-0-0-0-0-0-0--0-0--0--
A--0--0-0-0-0-0-0-0--0-0--0-0-0-0-0-0-0-0--0-0--0--
D--0--0-0-0-0-0-0-0--0-0--0-0-0-0-0-0-0-0--0-0--0--
A--0--0-0-0-0-0-0-0--0-0--0-0-0-0-0-0-0-0--0-0--0--
D--0--54-4-4-4-4-0--0-0--0-54-4-4-4-4-0--0-0--0--


Play 7x With Pick
d--7p0--------0-------------------------
d-------810-----10---------------------
A--------------------0--9h10--1012-12--
D---------------------------------------
A---------------------------------------
D---------------------------------------

8th Time With Pick
d--7p0--------0-----------------------
d-------810-----10-------------------
A--------------------0--9h10-10p9--9--
D-------------------------------------
A-------------------------------------
D-------------------------------------

Chorus
Play 2x
d--0--0-0-0--0-0-0-0--5-0-0--5--5-5-5--5-5-5/45-5/7-7-74--4-4--4-
d--0--0-0-0--0-0-0-0--5-0-0--0--0-0-0--0-0-0-0-0-0-0-0-0-0--0-0--0-
A--5--5-5-5--5-5-5-5--5-5-0--0--0-0-0--0-0-0-0-0-0-0-0-0-0--0-0--0-
D--5--5-5-5--5-5-5-5--5-5-0--0--0-0-0--0-0-0-0-0-0-0-0-0-0--0-0--0-
A--3------3--------3--3------0------0--0-----0-0-0-0-0-0-0--0-0--0-
D--x------x--------x---------5------5--5----/45-5/7-7-7-0--0-0--0-

d--54-4-4-4-4-4--4-4--4-54-4-4-4-4-4--4-4--4--
d--0-0-0-0-0-0-0--0-0--0-0-0-0-0-0-0-0--0-0--0--
A--0-0-0-0-0-0-0--0-0--0-0-0-0-0-0-0-0--0-0--0--
D--0-0-0-0-0-0-0--0-0--0-0-0-0-0-0-0-0--0-0--0--
A--0-0-0-0-0-0-0--0-0--0-0-0-0-0-0-0-0--0-0--0--
D--54-4-4-4-4-0--0-0--0-54-4-4-4-4-0--0-0--0--

d-----------0------------0-------5--5-5-5--5-5-5/45/7-7-74--4-4-
d-------------0------------0-----0--0-0-0--0-0-0-0-0-0-0-0-0--0-0-
A---------5-----5------5-----5---0--0-0-0--0-0-0-0-0-0-0-0-0--0-0-
D-----5--------------5---------0-0--0-0-0--0-0-0-0-0-0-0-0-0--0-0-
A--3----3---------3--------------0------0--0-----0-0-0-0-0-0--0-0-
D--------------------------------5------5--5----/45/7-7-7-0--0-0-

d--4--54-4-4-4-4-4--4-4--4-54-4-4-4-4-4--4-4--4--
d--0--0-0-0-0-0-0-0--0-0--0-0-0-0-0-0-0-0--0-0--0--
A--0--0-0-0-0-0-0-0--0-0--0-0-0-0-0-0-0-0--0-0--0--
D--0--0-0-0-0-0-0-0--0-0--0-0-0-0-0-0-0-0--0-0--0--
A--0--0-0-0-0-0-0-0--0-0--0-0-0-0-0-0-0-0--0-0--0--
D--0--54-4-4-4-4-0--0-0--0-54-4-4-4-4-0--0-0--0--

d------------0-------------0----5--5-5-5-5-5-5-5-5-5-5-5--
d--------------0-------------0--0--0-0-0-0-0-0-0-0-0-0-0--
A----------5-------------5------0--0-0-0-0-0-0-0-0-0-0-0--
D--------5-------5-----5--------0--0-0-0-0-0-0-0-0-0-0-0--
A-(3)-3-------------3-----------0----0---0---0---0---0----
D-------------------------------5----5---5---5---5---5----

With Distortion
I II III
D-------------| |-------------| |-----------------------------
d-------------| Fill |-------------| Fill |-----------------------------
A-------------| |-------------| |--5--5-5-5--5-5-5-5--5-5-5-0-
D--0--0-0--0--| #1 |--0--0-0--0--| #2 |--5--5-5-5--5-5-5-5--5-5-5-0-
A--0--0-0--0--| |--0--0-0--0--| |--3--3-3-3--3-3-3-3--3-3-3-0-
D--0--0-0--0--| |--0--0-0--0--| |--x--x-x-x--x-x-x-x--x-x-x-0-

III
d-------------------------------------| | | | | |
d-------------------------------------| Fill | | Fill | | Fill |
A-------------------------------------| | III | | III | |
D--5--5-5-5--5-5-5-5--5-5-5-5------0--| #3 | | #4 | | #4 |
A--5--5-5-5--5-5-5-5--5-5-5-5--0-0-0--| | | | | |
D--5--5-5-5--5-5-5-5--5-5-5-5--0-0-0--| | | | | |

d--| | | | | |
d--| III | | Fill | | Fill |
A--| | I | | II | |
D--| | | #1 | | #2 |
A--| | | | | |
D--| | | | | |

Play 2x
d---------0-----------0----5--5-5-5--5-5-5/45-5/7-7-74--4-4--4--
d-------0---0-----------0--0--0-0-0--0-0-0-0-0-0-0-0-0-0--0-0--0--
A-----0-------0-----0------0--0-0-0--0-0-0-0-0-0-0-0-0-0--0-0--0--
D--------------------------0--0-0-0--0-0-0-0-0-0-0-0-0-0--0-0--0--
A--4-------------4---------0------0--0-----0-0-0-0-0-0-0--0-0--0--
D--------------------------5------5--5----/45-5/7-7-7-0--0-0--0--

d--54-4-4-4-4-4--4-4--4-54-4-4-4-4-4--4-4-4--
d--0-0-0-0-0-0-0--0-0--0-0-0-0-0-0-0-0--0-0-0--
A--0-0-0-0-0-0-0--0-0--0-0-0-0-0-0-0-0--0-0-0--
D--0-0-0-0-0-0-0--0-0--0-0-0-0-0-0-0-0--0-0-0--
A--0-0-0-0-0-0-0--0-0--0-0-0-0-0-0-0-0--0-0-0--
D--54-4-4-4-4-0--0-0--0-54-4-4-4-4-0--0-0-0--

Begin Strumming
d--0--0-0-0--0-0-0-0--0--|---5-----------
d--0--0-0-0--0-0-0-0--0--|---0-----------
A--4--4-4-4--4-4-4-4--0--|---0-----------
D--4--4-4-4--4-4-4-4--0--|---0-----------
A--2--2-2-2--2-2-2-2-----|---0-----------
D------------------------|---5-----------


Fill #1 Fill #2 Fill #3
d--|---------|----------|----------------------------------------------
d--|---------|----------|----------------------------------------------
A--|---------|----------|----------------------------------------------
D--|-4h5p4-4-|--5h7p7 7-|--------------------------------------9-------
A--|---------|----------|---------9~ -------9h10-10-10-9-10-12---10-12-
D--|---------|----------|-9h10-12-----10h12----------------------------

d---------------------|-----
d---------------------|-----
A----------9----------|-----
D--9-10------12---0-0-|-----
A-------12--------0-0-|-----
D-----------------0-0-|-----


Fill #4
d--11-12-14-11-12-14-11-12-14-14p12p11-12-12-12-12-12-12-12--
d---0--0--0--0--0--0--0--0--0--0--------0--0--0--0--0--0--0--
A---0--0--0--0--0--0--0--0--0--0--------0--0--0--0--0--0--0--
D---0--0--0--0--0--0--0--0--0--0--------0--0--0--0--0--0--0--
A------------------------------------------------------------
D------------------------------------------------------------


2nd Verse
d-----|-----|-----|-----|-----|-----
d-----|-----|-----|-----|-----|-----
A--5--|-----|-----|--4--|-----|-----
D--5--|--5--|--0--|--4--|--5--|--0--
A--3--|--5--|--0--|--2--|--5--|--0--
D--x--|--5--|--0--|--x--|--5--|--0--

ACORDES PARA GUITARRA

PIANO UKELELE


COMENTARIOS

Aún no hay comentarios,

¡escribe el primero!

Escribe una pregunta, duda o comentario sobre esta canción, te responderemos a la brevedad.

Las más tocadas de Creed

Toca una Canción al Azar de Creed