Bread Of Shame (Acordes)

Creed

Full Álbum: Full Circle (2009)
Subida por lilidiaz

Compartir


Imprimir FAQ
+A
-A

Texto

Desplazamiento

Transportador

Color de Fondo

Archivos

-A
+A
(afinação - G# F# B E G# C#)

(intro 3x)
|---------------------------------------------|   |--------------------------|
|---------------------------------------------|   |--------------------------|
|---------------------------------------------|   |--------------------------|
|---------------------------------------------|   |--------------------------|
|-----14-----15-----12---14---14-----15p14p12-|   |-----14-----15-----12-----|
|-0-0----0-0----0-0----0----0----0-0----------|   |-0-0----0-0----0-0----12~-|

(riff 2x)
|--------------------|---------------------|--------------------|-------------------|
|--------------------|---------------------|--------------------|-------------------|
|-----------------4~-|-----------------4/5-|-----------------4~-|-------------------|
|--------------------|---------------------|--------------------|-4---4---4-4-2---2-|
|-----------------2~-|-----------------2/3-|-----------------2~-|-5---5---5-5-3---3-|
|-1~--3~--5~--0------|-1~--3~--5~--0-------|-1~--3~--5~--0------|-------------------|

(verso)
|-----------------------------|-----------------------------|----------------------------|
|-----------------------------|-----------------------------|----------------------------|
|-----------------------------|-----------------------------|----------------------------|
|---------------------3-3-3---|-----------------------------|----------------------------|
|-2-2-2-----3-3-3-------------|---5-5-5-----2h3-2h5-2---2h3-|-2-2-2-----3-3-3------------|
|-------0---------0---------0-|---------0-------------0-----|-------0---------0---1-1-1--|

"If you say I'm alive I guess I'm living                    Why should I guess your size, "
|-------------------------|-----------------------------|---------------------------|
|-------------------------|-----------------------------|---------------------------|
|-------------------------|-----------------------------|---------------------------|
|-------------------------|---------------------3-3-3---|---------------------------|
|-----------x--x----x--|-2-2-2-----3-3-3-------------|---5-5-5-----2h3-2h5-3p2-3-|
|-1~-0------x--x----x--|-------0---------0---------0-|---------0-----------------|

"a choice I've been given   Tell me everything's fine and peace is coming"
|---------------------------|-----------|
|---------------------------|-----------|
|---------------------------|-----------|
|---------------------------|-----------|
|-2-2-2-----3-3-3-----------|-----------|
|-------0---------0---1-1-1-|-1~-0------|
 "I won't listen to the heartache I'm numbing"

(ponte 2x)
|----------------------------|-------------------------------|
|----------------------------|-------------------------------|
|-4-4-4-----5-5-5-----101010-|-----7-7-7---------------------|
|----------------------------|---------------PH--PH--PH-PH---|
|-2-2-2-----3-3-3-----8-8-8--|-----5-5-5-----2h3-2h5-2--2b3--|
|-------0---------0----------|-0---------0------------0------|

|---------------------------|------------------------|
|---------------------------|------------------------|
|-4-4-4-----5-5-5-----------|------------------------|
|---------------------------|------------------------|
|-2-2-2-----3-3-3-----------|------------------------|
|-------0---------0---1-1-1-|-1~~-0---0---0---0---0--|

(refrão - tocar riff)
(verso)
(ponte)
(refrão)

(tocar intro com final diferente)
|---------------------------------------------|   |--------------------------|
|---------------------------------------------|   |--------------------------|
|---------------------------------------------|   |--------------------------|
|---------------------------------------------|   |--------------------------|
|-----14-----15-----12---14---14-----15p14p12-|   |-----14-----15-----12-12--|
|-0-0----0-0----0-0----0----0----0-0----------|   |-0-0----0-0----0-0--------|

(ponte 2)
|-----||--------------------------|------------------------------|
|-----||--------------------------|------------------------------|
|-----||--------------------------|------------------------------|
|-----||------------------------0-|------------2-----------------|
|-5-3-||-3~-----2p0-2~--2p0-2-2---|----------2---3~--------------|
|-----||----0-0-------------------|-3~--0--0---------0---1-0-1-3-|

        "Tell me where I sign my name"

|--------------------------|--------------------------------|
|--------------------------|--------------------------------|
|--------------------------|--------------------------------|
|------------------------0-|--------------2-----------------|
|-3~-----2p0-2~--2p0-2-2---|------------2---3~--------------|
|----0-0-------------------|-3PH~--0--0---------0---1-3-1-0-|

"Inside I find no peace of mind to hide behind, Only bread of shame"

(refrão)

(final 3x)
|-------------------------|     |---------------------------|---------------------|
|-------------------------|     |---------------------------|---------------------|
|-------------------------|     |---------------------------|---------------------|
|-------------------------|     |---------------------------|---------------------|
|---------------------2---|     |---------------------------|---------------------|
|-1PH--3PH--5PH~--0-------|     |-1PH-3PH-5PH~-1PH-3PH-5PH~-|-1PH-3PH-5PH~--0-----|

HERRAMIENTAS ACORDESWEB:


LETRA DE LA CANCIÓN:

Ver la letra sola (sin acordes)

OTRAS VERSIONES DE LA MISMA CANCIÓN:

Ver. 2 Ver. 3 Ver. 4 Ver. 5 Ver. 6

DESCARGAR PDF / IMPRIMIR CANCIÓN



ACORDES PARA GUITARRA

PIANO UKELELE


TOP 20: Las más tocadas de Creed


Toca una Canción al Azar de Creed

Acordes

Cerrar

22.45


244