Freedom Fighter
Creed
Acordes

Subida por Julbel
Álbum: Weathered ( 2001)


Más Versiones
Ver. 2 Ver. 3 Ver. 4 Ver. 5 Ver. 6

Cambiar Cifrado
Americano Latino

Cambiar Tonalidad
-1 +1

Partir Pantalla Imprimir FAQ

+A
-A
P.M.- palm mute
p- pull off
h- hammer on
^- bend
~- vibrato
/- slide

Intro (Distortion)(3x)
e|-----------------------------|----------------------------------|
b|-----------------------------|----------------------------------|
g|-----------------------------|-----------------5p-3h4-3^-3-2~---|
D|-----------------------------|----------------------------------|
A|-0-0-0----------0-0-0--3--5--|--0-0-0---------------------------|
D|-0-0-0--3--5----0-0-0--------|--0-0-0--3--5---------------------|


(3x)
e|-----------------------------|--------------------------------------|
b|-----------------------------|--------------------------------------|
g|-----------------------------|--------------------------------------|
D|-----------------------------|----------------5b-5b--3h5-3p 2h3-2p--|
A|-0-0-0----------0-0-0--3--5--|--0-0-0-------------------------------|
D|-0-0-0--3--5----0-0-0--------|--0-0-0--3--5-------------------------|

Then play intro with Palm Mute throughout

Bridge
e|---------------------------------------------------------------------------|
b|---------------------------------------------------------------------------|
g|---------------------------------------------------------------------------|
D|-7-7-7---10-10-10----9-9-9-9-9---5-5-5---3-3-3---7-7-7-7-7---2-2-2---------|
A|-7-7-7---10-10-10----9-9-9-9-9---5-5-5---3-3-3---7-7-7-7-7---2-2-2---------|
D|-7-7-7---10-10-10----9-9-9-9-9---5-5-5---3-3-3---7-7-7-7-7---2-2-2---------|


e|----------------|---------------------------------------|
b|----------------|---------------------------------------|
g|----------------|---------------------------------------|
D|---2-0-0--2-----|--2-0-0-2---0-0-2---0-0----------------|
A|---2-0-0--2-----|--2-0-0-2---0-0-2---0-0----5/3--0--3---|
D|---2-0-0--2-----|--2-0-0-2---0-0-2---0-0----5/3--0--3---|
P.M...... P.M. P.M. P.M. P.M.


Chorus
e|-----------------------------------------------------------------------|
b|-----------------------------------------------------------------------|
g|-----------------------------------------------------------------------|
D|-7-7-7---10-10-10----9-9-9-9-9---5-5-5---3-3-3---7-7-7---2-2-2---------|
A|-7-7-7---10-10-10----9-9-9-9-9---5-5-5---3-3-3---7-7-7---2-2-2---------|
D|-7-7-7---10-10-10----9-9-9-9-9---5-5-5---3-3-3---7-7-7---2-2-2---------|


Face to face with me................
e|----------------|---------------------------------------|
b|----------------|---------------------------------------|
g|----------------|---------------------------------------|
D|---2-0-0--2-----|--2-0-0-2---0-0-2---0-0----------------|
A|---2-0-0--2-----|--2-0-0-2---0-0-2---0-0----5/3--0--3---|
D|---2-0-0--2-----|--2-0-0-2---0-0-2---0-0----5/3--0--3---|
P.M...... P.M. P.M. P.M. P.M.




e|------------------------------------------------------|
b|------------------------------------------------------|
g|------------------------------------------------------|
D|------------------------------------------------------|
A|-0--0h3-5p0---0--0h3-5p0---0--0h3-5p0-----3-3-2-0-----|
D|-0------------0------------0--------------3-3-2-0-----|

ACORDES PARA GUITARRA

PIANO UKELELE


COMENTARIOS

Aún no hay comentarios,

¡escribe el primero!

Escribe una pregunta, duda o comentario sobre esta canción, te responderemos a la brevedad.

Las más tocadas de Creed

Toca una Canción al Azar de Creed