Inside Us All
Creed
Acordes

Subida por LEIDER100
Álbum: Human Clay ( 1999)


Más Versiones
Ver. 2 Ver. 3 Ver. 4 Ver. 5 Ver. 6

Cambiar Cifrado
Americano Latino

Cambiar Tonalidad
-1 +1

Partir Pantalla Imprimir FAQ

+A
-A


Ver solo la LETRA
Dedilhado Introdução:

E|------------------------0----------------
B|--------------------------0--------------
G|----------0-----0-----------0------------
D|----4-------------5-----------5----------
A|--2---2-----2-------2--------------------
D|2-------2-----2-------2------------------

E|--------------------------0--------------
B|-----------0--------0-------0------------
G|-----2-----------0----0-------0----------
D|---0---0-----0------------------0--------
A|-----------------------------------------
D|-5-------5-----5--------5----------------

E|-----------------------------------------
B|-----------------------------------------
G|-----------------------------------------
D|----4-----5-----7-----5-----4h5----------
A|--0---0-----0-----0-----0----------------
D|0-------0-----0-----0-----0--------------

E|-----------------------------------------
B|-----------------------------------------
G|----------------/12-----11-----9h11------
D|-----4-----5-----------------------------
A|---0---0-----0------0------0-------------
D|-0-------0-----0------0------0-----------

Primeira Parte:
Em9 G9
When I'm all alone
D
And no one else is there
Waiting by the phone
Em9
To remind me I'm still here
G9
When shadows paint the scenes
D
Where spotlights use to fall
And I'm left wondering
Is it really worth it all?

Refrão:
C9 G9 D9(11)
There's a peace inside us all
G6/B C9
Let it be your friend
G9 D9(11)
It will help you carry on
G6/B C9
In the end
G9 D9(11)
There's a peace inside us all

Dedilhado Introdução:

Primeira parte com variação na letra:
Em9 G9
Life can hold you down
D
When you're not looking out
Can't you hear the sounds
Em9
Hearts beating out loud
G9
Although the names change
D
Inside we're all the same
Why can't we tear down the walls
And show the scars we're covering?

Refrão:
C9 G9 D9(11)
There's a peace inside us all
G6/B C9
Let it be your friend
G9 D9(11)
It will help you carry on
G6/B C9
In the end
G9 D9(11)
There's a peace inside us all

Segunda Parte:
C4+(9) C5(9)
? ?
G5(7M) G5
? ?

G5(7M) G5 F5 D5
? ? X ? ?

E|--------------------------------------
B|-------12--12--12-12-x----------------
G|-------12b-12r-12-12-x--10------------
D|-3b--0---------0--0--x--0-------------
A|-3b--0--------------------------------
D|-3b--0------------------10------------

Riff Segunda parte:
There's a peace
Oh, there's a peace inside us all
Let it be
Oh I said let it be your friend

Refrão:
C9 G9 D9(11)
There's a peace inside us all
G6/B C9
Let it be your friend
G9 D9(11)
It will help you carry on
G6/B C9
In the end
G9 D9(11)
There's a peace inside us all

Riff Segunda parte:

ACORDES PARA GUITARRA

PIANO UKELELE
Em9
G9
D
C9
D11
G6/B
C7#11
Cadd9
Gmaj7
G5
F5
D5


COMENTARIOS

Aún no hay comentarios,

¡escribe el primero!

Escribe una pregunta, duda o comentario sobre esta canción, te responderemos a la brevedad.

Las más tocadas de Creed

Toca una Canción al Azar de Creed
Em9
G9
D
C9
D11
G6/B
C7#11
Cadd9
Gmaj7
G5
F5
D5