Ode
Creed
Acordes

Subida por Shiramgomez
Álbum: My Own Prison ( 1997)


Más Versiones
Ver. 2 Ver. 3 Ver. 4 Ver. 5 Ver. 6

Cambiar Cifrado
Americano Latino

Cambiar Tonalidad
-1 +1

Partir Pantalla Imprimir FAQ

+A
-A
Intro: 
e------------------------------------------------------|
b------------------------------------------------------|
g------------------------------------------------------|
d--0-0-0-7-0-6~~~---0-0-0-7-0-6-0-4~~---0-0-0-7-0-6~~~-|
a------------------------------------------------------|
E------------------------------------------------------|

e--------------------------------------------------------|
b--------------------------------------------------------|
g--------------------------------------------------------|
d--0-0-0-7-0-6-0-4~~---0-0-0-7-0-6~~~---0-0-0-7-0-6-0-4~~|
a--------------------------------------------------------|
E--------------------------------------------------------|

e-----------------------------------------|
b-----------------------------------------|
g-----------------------------------------|
d--0-0-7-0-6~~~---0-0-0-7-0-6-0-4~~-------|
a-----------------------------------------|
E-----------------------------------------|

Main Riff: 1ro, tocar 3 vezes |4ta vez incluir |
e----------------------------------|---Harmonics----|
b----------------------------------|---77--77---777-|
g----------------------------------|----------------|
d--0-0-0-7-0-6-0-4-0-5-0-----------|----------------|
a------------------------7--8-7-6--|----------------|
E----------------------------------|----------------|

Chorus:
"One step on your own"
e-------------3--------|
b---7----9----3--------|
g---7----9----4--------|
d---7----9----5--------|
a---5----7----5--------|
E---5----7----3--------|

Riff 1 após cifras do refrão
e-------------------------|
b-------------------------|
g-------------------------|
d-----------3------2------|
a--5-3p0-3h5-5-3h5--3-0---|
E-------------------------|

Riff 2 após cifras do refrão
e----------------------|
b----------------------|
g----------------------|
d-----345---345--------|
a--345---345---3h5p3---|
E----------------------|

e---------------------------------------------|
b---------------------------------------------|tocar
g---------------------------------------------|duas vezes
d---------------------------------------------|
a-55-3h5-3h5-3h5-3h5-3h5-3h5-3h5-5/7/8-875--|
E-55-3h5-3h5-3h5-3h5-3h5-3h5-3h5-5/7/8-875--|

Volte ao Main Riff
A seqûencia pode não estar correta, mas estes são todos os riffs.

ACORDES PARA GUITARRA

PIANO UKELELE


COMENTARIOS

Aún no hay comentarios,

¡escribe el primero!

Escribe una pregunta, duda o comentario sobre esta canción, te responderemos a la brevedad.

Las más tocadas de Creed

Toca una Canción al Azar de Creed