Sister
Creed
Acordes

Subida por joez16
Álbum: My Own Prison ( 1997)



Cambiar Cifrado
Americano Latino

Cambiar Tonalidad
-1 +1

Partir Pantalla Imprimir FAQ

+A
-A
Intro:
E|----------------------------------------------|
B|----------------------------------------------|
G|-11-11-12-12-14-14-14-14-11/12-1211-11-1211-| (2x)
D|----------------------------------------------|
A|-9--9--10-10-12-12-12-12-9-/10-109--9--109--|
D|----------------------------------------------|

E|-10-10-10-12-12-12-12-12-13-13-13-15-15-15-15-15-|
B|-10-10-10-12-12-12-12-12-13-13-13-15-15-15-15-15-|
G|-7--7--7--9--9--9--9--9--10-10-10-12-12-12-12-12-|
D|-------------------------------------------------|
A|-------------------------------------------------|
D|-------------------------------------------------|

E|-12/13-10-12/13-10-10-|-12/13-10-12/13-10-10-|
B|-12/13-10-12/13-10-10-|-12/13-10-12/13-10-10-|
G|-9-/10-7--9-/10-7--7--|-9-/10-7--9-/10-7--7--|
D|----------------------|----------------------|
A|----------------------|----------------------|
D|----------------------|----------------------|

E|-12/13-15-12/13-15-15-|-12/13-10-12/13-10-10-|
B|-12/13-15-12/13-15-15-|-12/13-10-12/13-10-10-|
G|-9-/10-12-9-/10-12-12-|-9-/10-7--9-/10-7--7--|
D|----------------------|----------------------|
A|----------------------|----------------------|
D|----------------------|----------------------|

E|-------------|
B|-7-7-7-7-7-7-|
G|-7-7-7-7-7-7-|
D|-------------|
A|-------------|
D|-------------|

Riff:
E|--------------------------------------|
B|--------------------------------------|
G|--------------------------------------|
D|-------7----------------------------5-|
A|---7h9------7h95----7h95----7h95---|
D|-0--------0--------0--------0---------|

Verso:
E|--------------------------------------------|
B|--------------------------------------------|
G|--------------------------------------------|
D|-------7----------------------------------5-|
A|---7h9--------7h95------7h95------7h95---|
D|-0--------0-0--------0-0--------0-0---------|
. ... ... ...

Pré-Refrão:
E|---------------------------------------------|
B|---------------------------------------------|
G|---------------------------------11/12-11/12-| (3x)
D|-0-0-10-9-0-0-9-8-0-0-8-7-X-X--X-------------|
A|-0-0-10-9-0-0-9-8-0-0-8-7-X-X--X-9-/10-9-/10-|
D|-0-0-10-9-0-0-9-8-0-0-8-7-X-X--X-------------|
........................
E|-------------------------------------------|
B|-------------------------------------------|
G|--------------------------7/9---------9/11-|
D|-0-0-10-9-0-0-9-8-0-0-8-7-----X-X-X-X------|
A|-0-0-10-9-0-0-9-8-0-0-8-7-5/7-X-X-X-X-7/9--|
D|-0-0-10-9-0-0-9-8-0-0-8-7-----X-X-X-X------|
........................
E|---------------------------------------------|
B|---------------------------------------------|
G|--------------------------9/11---------11/12-|
D|-0-0-10-9-0-0-9-8-0-0-8-7------X-X-X-X-------|
A|-0-0-10-9-0-0-9-8-0-0-8-7-7/9--X-X-X-X-9-/10-|
D|-0-0-10-9-0-0-9-8-0-0-8-7------X-X-X-X-------|

E|-------------------------------------------|
B|-------------------------------------------|
G|--------------------------7/9---------9/11-|
D|-0-0-10-9-0-0-9-8-0-0-8-7-----X-X-X-X------|
A|-0-0-10-9-0-0-9-8-0-0-8-7-5/7-X-X-X-X-7/9--|
D|-0-0-10-9-0-0-9-8-0-0-8-7-----X-X-X-X------|

E|---------------------------------------------|
B|---------------------------------------------|
G|--------------------------9/11---------11/12-|
D|-0-0-10-9-0-0-9-8-0-0-8-7------X-X-X-X-------|
A|-0-0-10-9-0-0-9-8-0-0-8-7-7/9--X-X-X-X-9-/10-|
D|-0-0-10-9-0-0-9-8-0-0-8-7------X-X-X-X-------|

E|-------------------------------------------|
B|-------------------------------------------|
G|--------------------------7/9---------9/11-|
D|-0-0-10-9-0-0-9-8-0-0-8-7-----X-X-X-X------|
A|-0-0-10-9-0-0-9-8-0-0-8-7-5/7-X-X-X-X-7/9--|
D|-0-0-10-9-0-0-9-8-0-0-8-7-----X-X-X-X------|

Refrão:
E|----------------------|
B|-3--------------------|
G|-2----4--2------------|
D|-0----4--2--5----2----|
A|-0----2--0--5----2----|
D|-0----------5----2----|

Ponte:
(guitarra 1)
E|----------|
B|----------|
G|----------|
D|-0--------|
A|-0--------|
D|-0--------|
(guitarra 2)
E|----------------------------------------------|
B|----------------------------------------------|
G|-11-11-12-12-14-14-14-14-11/12-1211-11-1211-| (2x)
D|----------------------------------------------|
A|-9--9--10-10-12-12-12-12-9-/10-109--9--109--|
D|----------------------------------------------|

(Verso 2)

(Pré-Refrão 2)

(Refrão 2)

Interlúdio:
E|-------------------------------------------|
B|-------------------------------------------|
G|--------------------------7/9---------9/11-|
D|-0-0-10-9-0-0-9-8-0-0-8-7-----X-X-X-X------|
A|-0-0-10-9-0-0-9-8-0-0-8-7-5/7-X-X-X-X-7/9--|
D|-0-0-10-9-0-0-9-8-0-0-8-7-----X-X-X-X------|

E|---------------------------------------------|
B|---------------------------------------------|
G|--------------------------9/11---------11/12-|
D|-0-0-10-9-0-0-9-8-0-0-8-7------X-X-X-X-------|
A|-0-0-10-9-0-0-9-8-0-0-8-7-7/9--X-X-X-X-9-/10-|
D|-0-0-10-9-0-0-9-8-0-0-8-7------X-X-X-X-------|

E|-------------------------------------------|
B|-------------------------------------------|
G|--------------------------7/9---------9/11-|
D|-0-0-10-9-0-0-9-8-0-0-8-7-----X-X-X-X------|
A|-0-0-10-9-0-0-9-8-0-0-8-7-5/7-X-X-X-X-7/9--|
D|-0-0-10-9-0-0-9-8-0-0-8-7-----X-X-X-X------|

E|---------------------------------------------|
B|---------------------------------------------|
G|--------------------------9/11---------11/12-|
D|-0-0-10-9-0-0-9-8-0-0-8-7------X-X-X-X-------|
A|-0-0-10-9-0-0-9-8-0-0-8-7-7/9--X-X-X-X-9-/10-|
D|-0-0-10-9-0-0-9-8-0-0-8-7------X-X-X-X-------|

E|-------------------------------------------|
B|-------------------------------------------|
G|--------------------------7/9---------9/11-|
D|-0-0-10-9-0-0-9-8-0-0-8-7-----X-X-X-X------|
A|-0-0-10-9-0-0-9-8-0-0-8-7-5/7-X-X-X-X-7/9--|
D|-0-0-10-9-0-0-9-8-0-0-8-7-----X-X-X-X------|

E|-------------------------------------------|
B|-------------------------------------------|
G|--------------------------9/11-11-11-11-11-|
D|-0-0-10-9-0-0-9-8-0-0-8-7------------------|
A|-0-0-10-9-0-0-9-8-0-0-8-7-7/9--9--9--9--9--|
D|-0-0-10-9-0-0-9-8-0-0-8-7------------------|

ACORDES PARA GUITARRA

PIANO UKELELE


COMENTARIOS

Aún no hay comentarios,

¡escribe el primero!

Escribe una pregunta, duda o comentario sobre esta canción, te responderemos a la brevedad.

Las más tocadas de Creed

Toca una Canción al Azar de Creed