as SUDDENLY | Creed | Acordes

Suddenly

Creed

Acordes

Full Circle (2009)
Subida por robotix93



Cambiar Cifrado
Americano Latino

Cambiar Tonalidad
-1 +1

Partir Pantalla Imprimir FAQ

+A
-A


Ver solo la LETRA
(afinação - C# F# B E G# C#)

(intro)
|-----|---------------------------------|---------------------------------|
|-----|---------------------------------|---------------------------------|
|-----|---------------------------------|---------------------------------|
|-----|-6---2---3-----3---6---2-3-5-3---|-6---2---3-----3---5---2-3-5-3---|
|-----|---------------------------------|---------------------------------|
|-0-0-|---0---0---0-0---0---0---------0-|---0---0---0-0---0---0---------3-|

|---------------------------------|---------------------|
|---------------------------------|---------------------|
|---------------------------------|---------------------|
|---------------------------------|---------------------|
|-3---2---0-----0---0-2-3-5-3-2---|---3---2---0---------|
|---3---3---3-3---3-------------0-|-1---1---1-----------|

(riff pré-verso)
|------------------------------------|------------------------------------|
|------------------------------------|------------------------------------|
|-13---9---10---10---13---9-10-9-9-9-|-13---9---10---10---13---9-10-9-----|
|------------------------------------|------------------------------------|
|-11---7---8----8----11---7-8--7-7-7-|-11---7---8----8----11---7-8--7-----|
|----0---0---------0----0------------|----0---0---------0----0--------0-0-|

|---------------------------------|--------------------------------|
|---------------------------------|--------------------------------|
|---------------------------------|--------------------------------|
|---------------------------------|--------------------------------|
|-3---2---0-----0---0-2-3-5-3-2-0-|---3---2---0-----0---2b3r2~-----|
|---3---3---3-3---3---------------|-1---1---1---1-1---1--------3p0-|

(riff verso 2x)
|---------------------------------|---------------------------------|
|---------------------------------|---------------------------------|
|---------------------------------|---------------------------------|
|-5---2---3-----3---5---2-3-5-3---|-5---2---3-----3---5---2-3-5-3---|
|---------------------------------|---------------------------------|
|---0---0---0-0---0---0---------0-|---0---0---0-0---0---0---------3-|

|---------------------------------|--------------------------------|
|---------------------------------|--------------------------------|
|---------------------------------|--------------------------------|
|---------------------------------|--------------------------------|
|-3---2---0-----0---0-2-3-5-3-2-0-|---3---2---0-----0---2b3r2~-----|
|---3---3---3-3---3---------------|-1---1---1---1-1---1--------3p0-|

(refrão - tocar 2x)
|--------------------|-----------------------|-----------------------|----------------------|
|--------------------|-----------------------|-----------------------|----------------------|
|-0----0---0-0-------|-4----4----4h5-5--5----|-----------------------|----------------------|
|-2----2---2-2--5----|-2----2----2---2--2----|-----------------------|----------------------|
|-3----3---3-3--2--0-|-0----0----0---0--0----|-3----3---3-3-3-3-3--3-|-3----3---3-2-2--2--2-|
|--------------------|---------------------0-|-1----1---1-1-1-1-1--0-|-0----0---0-0-0--0--0-|

(riff pré-verso)
(riff verso)
(refrão)

(ponte)
|--------------------------------|--------------------------------|
|--------------------------------|--------------------------------|
|--------------------------------|--------------------------------|
|--------------------------------|--------------------------------|
|-5-----5-----5-----5------------|-3-----3-----2-----2------------|
|---0-0---0-0---0-0---0-0-333333-|---0-0---0-0---0-0---0-0-333111-|

|------------------------|-----------------------|--------------------------|
|------------------------|-----------------------|--------------------------|
|------------------------|-----------------------|--------------------------|
|------------------------|-4----4---4------------|--------------------------|
|-5----5---5----7---7-7--|-2----2---2---5--5--5--|-5----5---5----7---7--PMPM|
|-3----3---3----5---5-5--|-0----0---0---5--5--5--|-3----3---3----5---5--0-0-|

(final)
|--------------------------------|
|--------------------------------|
|--------------------------------|
|--------------------------------|
|-2-----2-----2-----2------------|
|---0-0---0-0---0-0---0-0-333330-|

"falls apart!"

|------------------------------------|------------------------------------|
|------------------------------------|------------------------------------|
|-13---9---10---10---13---9-10-9-9-9-|-13---9---10---10---13---9-10-9-----|
|------------------------------------|------------------------------------|
|-11---7---8----8----11---7-8--7-7-7-|-11---7---8----8----11---7-8--7-----|
|----0---0---------0----0------------|----0---0---------0----0------------|

NUEVO FORO DE MÚSICA

¿Tienes alguna duda, consulta, pregunta, consejo o algo para compartir sobre esta canción?

¡Puedes abrir un hilo en el FORO para que la comunidad te ayude! Hacer una pregunta

ACORDES PARA GUITARRA

PIANO UKELELE


Las más tocadas de Creed