Essa Música É Pra Alguém Especial (Acordes)

Doyoulike?

Subida por Hector

Compartir


Cambiar Cifrado
Americano Latino

Cambiar Tonalidad
-1 +1
Imprimir FAQ

Para cambio de tonalidad, zoom, cambio de cifrado, haz clic en este botón


CONSEJO:

Afina tu guitarra antes de tocar. Prueba nuestro afinador en linea.

+A
-A

Texto

Desplazamiento

Transportador

Color de Fondo

Archivos

TONALIDAD, TAMAÑO, CIFRADO, SCROL.

Nos renovamos: Ahora puedes cambiar TODO haciendo clic en ICONO de la Guitarra () que aparece en la parte inferior de esta página.


LETRA CON ACORDES

intro: G E Am

E||-----10----10--8--7--7s-8-7----|
B||--8------8------------------8--|
G||-------------------------------|
D||-------------------------------|
A||-------------------------------|
E||-------------------------------|

C E

E||----------------------------------||
B||--13-13-12-12--10-8-8-8-8-8-8-8-8-||
G||----------------------------------||
D||--10-10-9--9---7-5-5-5-5-5-5-5-5--||
A||----------------------------------||
E||----------------------------------||

G   D
faz sentir, indiferente
de bom ou ruim 

faz chorar, 
de tanto rir ou por amar 
 
C  E
distante está, mesmo podendo tocar 
C  E          D       
perto está, querendo fugir 

C            D
queria poder voltar a dormir 
C                D
mas resolvi falar, um pouco de mim. 

agora vem a parte legal..

guitarra 1 a base fica G e C

guitarra 2 

--------------------------------------------------|
--------------------------------------------------|
--12-12-12-12-12-12-12-12-12-12-12-12-12-11-11-11-|
--------------------------------------------------|
--10-10-10-10-10-10-10-10-10-10-10-10-10--9--9--9-|
--------------------------------------------------|
  
--------------------------------------------------|
--------------------------------------------------|
--11-12-12-12-12-12-12-12-12-12-12-12-12-14-14-14-|
--------------------------------------------------|
--9--10-10-10-10-10-10-10-10-10-10-10-10-12-12-12-|
--------------------------------------------------|
    
--------------------------------------------------|
--------------------------------------------------|
--14-12-12-12-12-12-12-12-12-12-12-12-12-12-12-12-|
--------------------------------------------------|
--12-10-10-10-10-10-10-10-10-10-10-10-10-10-10-10-|
--------------------------------------------------|

----------------------------------------------|
----------------------------------------------|
--11-11-11-11----12-12-12-12---12-12-12-12-12-|
----------------------------------------------|
---9--9--9--9----10-10-10-10---10-10-10-10-10-|
----------------------------------------------|

C  E
distante está, mesmo podendo tocar 
C  E          D       
perto está, querendo fugir

Video Clip de Essa Música É Pra Alguém Especial


ACORDES PARA GUITARRA

PIANO UKELELE
G
E
Am
B
D
A
C


TOP 20: Las más tocadas de Doyoulike?


Toca una Canción al Azar de Doyoulike?

Acordes

Cerrar
G
E
Am
B
D
A
C

21.47


170