Mesmo Que Você Não Entenda (Acordes)

Doyoulike?

Subida por FreddyEscalante

Compartir


Cambiar Cifrado
Americano Latino

Cambiar Tonalidad
-1 +1
Imprimir FAQ

Para cambio de tonalidad, zoom, cambio de cifrado, haz clic en este botón


CONSEJO:

Afina tu guitarra antes de tocar. Prueba nuestro afinador en linea.

+A
-A

Texto

Desplazamiento

Transportador

Color de Fondo

Archivos

TONALIDAD, TAMAÑO, CIFRADO, SCROL.

Nos renovamos: Ahora puedes cambiar TODO haciendo clic en ICONO de la Guitarra () que aparece en la parte inferior de esta página.


LETRA CON ACORDES

Intro (C9)

(2X)

E|-6-----6-----6-----6-----6-----6-----6-----6-----6-----6-----4-----4-----4-----4-----4------|
B|---7-----7-----7-----7-----7-----7-----7-----7-----7-----7-----7-----7-----7-----7-----7----|
G|-----4-----4-----4-----4-----4-----4-----4-----4-----4-----4-----6-----6-----6-----6-----6--|
D|--------------------------------------------------------------------------------------------|
A|--------------------------------------------------------------------------------------------|
E|--------------------------------------------------------------------------------------------|

E|-4-------4-----4-----4-----4-----|
B|---7-------7-----7-----7-----7---|
G|----4--------4-----4-----4-----4-|
D|---------------------------------|
A|---------------------------------|
E|---------------------------------|
 C9                       Am
  Olhe pra você, tão orgulhosa por sentir-se sempre
F
tão certa de tudo,
C9                        Am
  de manter sempre todas as coisas
F
sob controle.
C9                          Am
  Olhe pra você, já não sabe mais se consegue entregar
     F
seu coração.
Am         F             Dm        F
  Eu não queria estar no teu lugar.
 Am             F             G             (C9)
  Deixei pra trás o tempo em que eu fui assim.

C9                       Am
  Tento entender como você
 F
pode não sentir

C9                                          Am
falta de um abraço quente quando as luzes caem
     F
e o mundo todo
C9                                  Am         F
parece estar sobre seu peito antes de dormir, antes de dormir...

Am                                     F
Nem todos os problemas do mundo vão te distrair
   C9                   G  G#°
e nem te afastar de estar só.
Am           F             G
  E quando você se sentir assim....

C9  Am  F )
Uhh Uhh Uhh UhUh

G                     F
  E quando você se sentir assim....

C9                                   Am
Me abraça forte quando a noite vir, eu não quero estar
         F
sozinho quando amanhecer
C9                         Am      F
 (e mesmo que você não entenda, eu vou estar aqui pra
te proteger).

C9 )

Video Clip de Mesmo Que Você Não Entenda


ACORDES PARA GUITARRA

PIANO UKELELE
C9
Am
F
Dm
G
G#dim


TOP 20: Las más tocadas de Doyoulike?


Toca una Canción al Azar de Doyoulike?

Acordes

Cerrar
C9
Am
F
Dm
G
G#dim

07.22


249