Primeiro Dia (Acordes)

Doyoulike?

Subida por robertoara

Compartir


Cambiar Cifrado
Americano Latino

Cambiar Tonalidad
-1 +1
Imprimir FAQ

Para cambio de tonalidad, zoom, cambio de cifrado, haz clic en este botón


CONSEJO:

Afina tu guitarra antes de tocar. Prueba nuestro afinador en linea.

+A
-A

Texto

Desplazamiento

Transportador

Color de Fondo

Archivos

TONALIDAD, TAMAÑO, CIFRADO, SCROL.

Nos renovamos: Ahora puedes cambiar TODO haciendo clic en ICONO de la Guitarra () que aparece en la parte inferior de esta página.


LETRA CON ACORDES

 E
Faz pouco tempo que estou
 A
Faz pouco tempo que cheguei  
 E                     A
Faz pouco tempo que estamos aqui
(2X)

(ai tem o solinho nessa parte)

E|------------------------------------------
B|---9---9-10---7-9-7-----9---9-10-10-10-12-
G|-9---9------9---------9---9---------------
(2X)


 E           A
Três meses longe
 E        B
E tanta coisa pra dizer
 E           A
Não foi por acaso que perdi
 F#        A
Meu tempo com você
 E        A
Contei os passos
 E        B
Decorei o nome dessa rua
 E       A
Abro um bom livro 
           F#  G#  A
Enquanto você não chega


 E
Faz pouco tempo que estou
 A
Faz pouco tempo que cheguei  
 E                     A
Faz pouco tempo que estamos aqui
(2X)

E|----------------------------------
B|----------------------------------
G|--6-6-6-6-6-8-8-9-9-9-9-9-9-9-9-9-
D|----------------------------------
A|--4-4-4-4-4-6-6-7-7-7-7-7-7-7-7-7-
E|----------------------------------

E|-----------------------------------
B|-----------------------------------
G|--6-6-6-6-6-11-11-9-9-9-9-9-9-9-9-9
D|-----------------------------------
A|--4-4-4-4-4-9--9--7-7-7-7-7-7-7-7-7
E|-----------------------------------


 E    B   F#    A  
Tentei deixar nossa história em seu lugar...
 E         B           F#        A 
Entre as linhas dos cadernos rabiscados por você
 E     B     F#    A 
Mas não mudou, só aumentou
 E         B       F#
E agora falta pouco 
 A    A    A   A
Tempo pra te ver...

E|----------------------
B|----------------------
G|-5-5-5-5-4-4-2--------
D|----------------------
A|----------------------
E|----------------------

FINAL

E|-0-0-0-0-5-5-5-0-0-0-0-0-4-0-4-4-
B|-5-5-5-5-5-5-5-5-5-5-5-5-5-5-5-5-
G|---------------------------------
D|---------------------------------
A|---------------------------------
E|---------------------------------
(4x)

Junto toca E,F#,E,A




C#     B      A      F#     E  
Faz pouco tempo que estamos aqui...

Video Clip de Primeiro Dia


ACORDES PARA GUITARRA

PIANO UKELELE
E
A
B
F#
G#
C#


TOP 20: Las más tocadas de Doyoulike?


Toca una Canción al Azar de Doyoulike?

Acordes

Cerrar
E
A
B
F#
G#
C#

17.16


196