Myouri (Acordes)

Doyoulike?

Subida por rlcalderon1

Compartir


Cambiar Cifrado
Americano Latino

Cambiar Tonalidad
-1 +1
Imprimir FAQ

Para cambio de tonalidad, zoom, cambio de cifrado, haz clic en este botón


CONSEJO:

Afina tu guitarra antes de tocar. Prueba nuestro afinador en linea.

+A
-A

Texto

Desplazamiento

Transportador

Color de Fondo

Archivos

TONALIDAD, TAMAÑO, CIFRADO, SCROL.

Nos renovamos: Ahora puedes cambiar TODO haciendo clic en ICONO de la Guitarra () que aparece en la parte inferior de esta página.


LETRA CON ACORDES

intro:
guitarra 1

E||----------------------------
B||-5---3--6--5--3--3-5--3-----
G||-5---5--5--5--5--------5----
D||-5-5-5--5--5--5-------------
A||----------------------------
E||----------------------------

guitarra 2

E||----------------------------
B||-3---5--3-------3--5--3-----
G||-3---5--5---------------5---
D||-3---5--5-5-5-5-------------
A||----------------------------
E||----------------------------

guitarra 1: Am e F

E||----------------------------
B||----------------------------
G||----5----7--5---5-----------
D||-7----7-------7-------------
A||----------------------------
E||----------------------------

guitarra 2: Am7 e Fm7M = E||------
                         B||--5---
                         G||--5---
                         D||--3---
                         A||------

Am           F          
ver você aqui não faz sentido algum
Am                  F
já faz tanto tempo que deixamos de nos falar
Am          F
ver você aqui não traz desgosto nenhum
Am                   F
nem faz tanto tempo que deixamos...

E||---------------------------------------------------------------------------
B||---------------------------------------------------------------------------
G||-7-7-7-7-7-7-7-7-10-10-10-10--10-10-10-10-5-5-5-5-5-5-5-5-5----------------
D||---------------------------------------------------------------------------
A||-5-5-5-5-5-5-5-5--8--8--8--8--8--8--8--8--3-3-3-3-3-3-3-3-3---0--3--5-3-0--
E||---------------------------------------------------------------------------

Am          F           C           G  G/G#
Dizer que sempre houve mais saudade e orgulho
Am          F             C       G  G/G#
Que paixão aqui entre nós dois
Am              F         C    G  G/G#
Fingindo ser mais fortes, não, melhores 

solo final

E||-----------------------------------------------------------------------------
B||-----------------------------------------------------------------------------
G||-----5--7-9-------5--7--9-7-----5--7-9--9-10--10--12-12-12-12-12-12-12-12-12-
D||-5-7---------5-7-------------5-7---------------------------------------------
A||-----------------------------------------------------------------------------
E||-----------------------------------------------------------------------------

E||----------------------------------
B||----------------------------------
G||-----5-7-----5-7-----5-7-----5-7--
D||-5-7-----5-7-----5-7-----5-7------
E||----------------------------------
E||----------------------------------

é mais ou menos isso ae..

Video Clip de Myouri


ACORDES PARA GUITARRA

PIANO UKELELE
E
B
G
D
A
Am
F
C


TOP 20: Las más tocadas de Doyoulike?


Toca una Canción al Azar de Doyoulike?

Acordes

Cerrar
E
B
G
D
A
Am
F
C

22.19


87