Sem Letra, Sem Refrão (Acordes)

Doyoulike?

Subida por antsoni

Compartir


Cambiar Cifrado
Americano Latino

Cambiar Tonalidad
-1 +1
Imprimir FAQ

Para cambio de tonalidad, zoom, cambio de cifrado, haz clic en este botón


CONSEJO:

Afina tu guitarra antes de tocar. Prueba nuestro afinador en linea.

+A
-A

Texto

Desplazamiento

Transportador

Color de Fondo

Archivos

TONALIDAD, TAMAÑO, CIFRADO, SCROL.

Nos renovamos: Ahora puedes cambiar TODO haciendo clic en ICONO de la Guitarra () que aparece en la parte inferior de esta página.


LETRA CON ACORDES

Intro:
E|----------------------------|
B|-5-6-6-6-6-6--5-6-6-6-6-6-6-|
G|-5---5-5-5-5--5---5-5-5-5-5-| (4x)
D|----------------------------|
A|----------------------------|
E|----------------------------|

E|----------------------------|
B|-11-10----------------------|
G|-10-10---10--9--10-9--------| (4x)
D|---------10--10-10-10-------|
A|----------------------------|
E|----------------------------|

E|----------------------------|
B|-5-6-6-----6---5-6-6-6----6-|
G|-------5-5------------5-5---| (2x)
D|----------------------------|
A|----------------------------|
E|----------------------------|

E|-5-6-5--------8-6-5----------5-6-5-----------8-8-8-8-8-|
B|-------6------------6--------------6---6-8-6-----------|
G|---------7--7---------7--7-----------7-----------------| (2x)
D|-------------------------------------------------------|
A|-------------------------------------------------------|
E|-------------------------------------------------------|

F                  G             A Bb
Me faça entender como eu cheguei aqui
F                  G             A Bb
Me fale de você e sobre as coisas que gosta de ouvir
F                       C
Conte dos livros que já te fizeram chorar
G                    Bb    A/Bb
E todas as vezes que pediu desculpas
F                         C
Me mostre as fotos que tirou naquele melhor verão
G                    Bb    A/Bb
E das pessoas que você sente falta

F )

F                  G       A Bb
Me faça esquecer o caminho de volta
F                       G       A Bb
Me fale de você e sobre tudo que te faz sofrer
F                       C
Conte as histórias que você não cansa de contar
G                    Bb    A/Bb
Dance comigo só mais uma música

F                       C
Deite um pouco bem aqui sobre meu peito

G                       Bb    A/Bb
Abra a janela e deixe o vento entrar
F G Bb  (2x)
aí tem o outro solinho nessa parte..
E|---------------------------------|
B|-----6-----6-----6---6-8-8--8-6--|
G|-3-5---3-5---3-5-----------------| (2x)
D|---------------------------------|
A|---------------------------------|
E|---------------------------------|

 F
Sei que não vai notar...
 C
Mas a canção que fiz pra ti         (2x)
 Bb            G         Bb
Foi a mesma que você cantou pra mim.
 ( F )
E|-------------------------------------------------------|
B|-----6-----------6------------6-----------6------------|
G|-5-----7--5-2--5----7-5-2--5-----7-5-2--5---7-5--------| (2x)
D|------------------------------------------------7--7---|
A|-------------------------------------------------------|
E|-------------------------------------------------------|

Dm  C )

E|-------8-------------8---------|
B|---6-----6---6---6-----6---6---|
G|-7---7-----7---7---7-----7-----| (7x)
D|-------------------------------|
A|-------------------------------|
E|-------------------------------|

F  C  G  Bb )

Video Clip de Sem Letra, Sem Refrão


ACORDES PARA GUITARRA

PIANO UKELELE
F
G
A
Bb
C
A/Bb
Dm


TOP 20: Las más tocadas de Doyoulike?


Toca una Canción al Azar de Doyoulike?

Acordes

Cerrar
F
G
A
Bb
C
A/Bb
Dm

19.58


205