Nao Foi Você (Acordes)

Doyoulike?

Subida por eliezerali

Compartir


Cambiar Cifrado
Americano Latino

Cambiar Tonalidad
-1 +1
Imprimir FAQ

Para cambio de tonalidad, zoom, cambio de cifrado, haz clic en este botón


CONSEJO:

Afina tu guitarra antes de tocar. Prueba nuestro afinador en linea.

+A
-A

Texto

Desplazamiento

Transportador

Color de Fondo

Archivos

TONALIDAD, TAMAÑO, CIFRADO, SCROL.

Nos renovamos: Ahora puedes cambiar TODO haciendo clic en ICONO de la Guitarra () que aparece en la parte inferior de esta página.


LETRA CON ACORDES

intro:
E||-------------------------------------------------------------
B||-9-10-9-7---------------------9-10-9-7----12-10-9-9-10-9-----
G||----------9----9-11-12--9-11-----------9---------------------
D||------------11-----------------------------------------------
A||-------------------------------------------------------------
E||-------------------------------------------------------------

E||-----------------------------------------------------------------------------------------------
B||-9-10-9-7---------------------10--10----9--9----12--12---7--7----5--5----5--5----5--5---5--5---
G||----------9----9-11-12--9-11--9---9-----9--9----9---9----9--9----5--5----5--5----5--5---5--5---
D||------------11---------------------------------------------------------------------------------
A||-----------------------------------------------------------------------------------------------
E||-----------------------------------------------------------------------------------------------

E                   Asus2
se você quiser ficar mais uma noite eu vou deixar
E                      Asus2
mas não esqueça que eu não vou esquecer
E                   Asus2                         E                     Asus2
foi dificil para mim, não ter mais com quem falar todas as noites antes de dormir
F#m       A     C
não imaginava, estar

E             Asus2
tão indefeso assim
E                           Asus2
sentir falta de quem não vai sentir de mim
E                     Asus2
e eu sei que é o que você quer
C
mas eu vou estar melhor

E                    Asus2              E       Asus2
ficou fácil pra você, apontar o dedo e acusaaaar
E                       Asus2             E           Asus2
não foi você que precisou de ajuda pra sair de casa pra se divertir
C
não imaginava, estar

E             Asus2
tão indefeso assim
E                          Asus2
sentir falta de quem não vai sentir de mim
E                    Asus2
e eu sei que é o que você quer
C
Mas eu vou estar melhor

E

Asus2 = E||-0-
        B||-0-
        G||-2-
        D||-2-
        A||-0-
        E||---

Video Clip de Nao Foi Você


ACORDES PARA GUITARRA

PIANO UKELELE
E
B
G
D
A
Asus2
F#m
C


TOP 20: Las más tocadas de Doyoulike?


Toca una Canción al Azar de Doyoulike?

Acordes

Cerrar
E
B
G
D
A
Asus2
F#m
C

21.40


105