Recordo (Acordes)

Doyoulike?

Subida por examirfa

Compartir


Imprimir FAQ
+A
-A

Texto

Desplazamiento

Transportador

Color de Fondo

Archivos

-A
+A
(intro) G Em C Cm

G                Em                C
  Pensei que sentar ao seu lado seria
  Cm
A melhor coisa
G               Em
  Já que eu esperei tanto tempo
         C    Cm
  Pra estar aqui

G                       Em                         C
  Te ver chegar toda manhã, cruzando a rua devagar
                             Cm
  Trazendo alguns cadernos que eu emprestei
G                      Em                        C         Cm
  Dizendo que já encontrou os bilhetes que escrevi

Am           C                  G
  Mas outra vez eu deixei pra trás
            G7
  Esperando a sua saída
Am          C                  G
  Torcendo pra que em algum lugar
               Am                      C     Cm
Você me encontrasse e eu pudesse te dizer

G                 Em           C           Cm
  Por mais que a gente sempre tente nunca mais vai ser igual
G          Em         C Cm
  Aqueles anos nunca voltam

(riff intro) G Em C Cm - uma vez a cada acorde)

E|-x--x--x-x-x--x--x--x----x--|
B|-8--8--8-8-8--10-10-10---11-|
G|-x--x--x-x-x--x--x--x----x--|
D|-5--5--5-5-5--7--7--7----8--|
A|-x--x--x-x-x--x--x--x----x--|
E|-x--x--x-x-x--x--x--x----x--|

(riff da parte 'te ver chegar toda manhã..')
E|---------------------------10-8-7-8-7-------10-8-7-8-7--------10-8-7-8-7-------|
B|--8-----8-8-----8-8-----8-------------8----------------8-----------------8-----|
G|---7-9-7---7-9-7---7-9-7----------------9-7--------------9-7---------------9-7-|

Video Clip de Recordo


ACORDES PARA GUITARRA

PIANO UKELELE
G
Em
C
Cm
Am
G7


TOP 20: Las más tocadas de Doyoulike?


Toca una Canción al Azar de Doyoulike?

Acordes

Cerrar
G
Em
C
Cm
Am
G7

00.27

x

212