Post-it (Acordes)

Doyoulike?

Subida por Kamgman

Compartir


Imprimir FAQ
+A
-A

Texto

Desplazamiento

Transportador

Color de Fondo

Archivos

-A
+A
E||------------------------------------|
B||-------10-------10-------10-12--10--|               
G||--9-11-----9-11-----9-11------------|
D||------------------------------------| 6x
A||------------------------------------|              
E||------------------------------------|

E||----------------------------------------|
B||--14--14--14-12--10--10-10--10-10-10-10-|
G||----------------------------------------| 
D||----------------------------------------|
A||----------------------------------------|
E||----------------------------------------|

E||-------------12-------------------------|
B||--14--14--14-----10--10-10--10-10-10-10-|
G||--------------------------------------9-| 
D||----------------------------------------|
A||----------------------------------------|
E||----------------------------------------|

  A                                  F#m
Estranho é sentir você, mesmo longe assim
                         D
Deixando claro que não pensa nunca em mim
                                E
Negando aquilo que nos faz tão bem
 A                            F#m
Não sei se há motivos para argumentar
                          D
Dizedo que não sabe o que é amar
                              E
Passando por cima de quem te quer tão bem

Video Clip de Post-it


ACORDES PARA GUITARRA

PIANO UKELELE
E
B
G
D
A
F#m


TOP 20: Las más tocadas de Doyoulike?


Toca una Canción al Azar de Doyoulike?

Acordes

Cerrar
E
B
G
D
A
F#m

03.53

x

62