Essa Música Fala Sobre Orgulho (Acordes)

Doyoulike?

Subida por cuatrosobris

Compartir


Cambiar Cifrado
Americano Latino

Cambiar Tonalidad
-1 +1
Imprimir FAQ

Para cambio de tonalidad, zoom, cambio de cifrado, haz clic en este botón


CONSEJO:

Afina tu guitarra antes de tocar. Prueba nuestro afinador en linea.

+A
-A

Texto

Desplazamiento

Transportador

Color de Fondo

Archivos

TONALIDAD, TAMAÑO, CIFRADO, SCROL.

Nos renovamos: Ahora puedes cambiar TODO haciendo clic en ICONO de la Guitarra () que aparece en la parte inferior de esta página.


LETRA CON ACORDES

Intro:

E|----------------------------------------------------------
B|-10---8--7---10-8--7--8-7---5--5--5--7--8--7--5--7--------
G|-7----7--7---7--7--7--7-7---7--7--7--7--7--7--7--7--------
D|-7----7--7---7--7--7--7-7---7--7--7--7--7--7--7--7--------

E|---------------------------------10----10--12-10------------
B|-10---8--7---10-8--7--8-7---10-------10----------11-10------
G|-7----7--7---7--7--7--7-7-----------------------------------
D|-7----7--7---7--7--7--7-7-----------------------------------

Obs.: Fica assim quase na musica inteira.


D A
"-Não me diz mais nada, eu só queria ficar mais,
G Bm A D
Esquecer que a noite vai ter fim, beber um copo ou dois e deixar pra lá.
A G Bm A 
Andar um pouco, respirar um pouco mais de ar"

G D
Ás vezes me sinto tão bem sozinho,
A Bm A
E às vezes é tão ruim sentir saudade e eu nem sei bem de que.
G D A
Vai ver não passa de outra desculpa pra eu me sentir melhor quando a noite é vazia.

D A
Aonde você quer chegar?
G
Dizendo que eu não tenho pra te oferecer
Bm A
O que você procura?

D A
E eu já não quero me sentir
G
Errado ao acreditar
Bm A
Que a saudade que eu sinto, me faz tão bem.

G D
Ás vezes me sinto tão bem sozinho,
A Bm A
E às vezes é tão ruim sentir saudade e eu nem sei bem de que.
G D A
Vai ver não passa de outra desculpa pra eu me sentir melhor quando a noite é vazia.

Bm G D A
Eu eu não tenho mais a tua companhia:
Bm G D A G F#/G Em D
"-Estou bem melhor assim, obrigado por não perguntar"

Video Clip de Essa Música Fala Sobre Orgulho


ACORDES PARA GUITARRA

PIANO UKELELE
D
A
G
Bm
F#/G
Em


TOP 20: Las más tocadas de Doyoulike?


Toca una Canción al Azar de Doyoulike?

Acordes

Cerrar
D
A
G
Bm
F#/G
Em

07.10


193