Levante, Meu Amigo! (Acordes)

Doyoulike?

Subida por jeferesco

Compartir


Cambiar Cifrado
Americano Latino

Cambiar Tonalidad
-1 +1
Imprimir FAQ

Para cambio de tonalidad, zoom, cambio de cifrado, haz clic en este botón


CONSEJO:

Afina tu guitarra antes de tocar. Prueba nuestro afinador en linea.

+A
-A

Texto

Desplazamiento

Transportador

Color de Fondo

Archivos

TONALIDAD, TAMAÑO, CIFRADO, SCROL.

Nos renovamos: Ahora puedes cambiar TODO haciendo clic en ICONO de la Guitarra () que aparece en la parte inferior de esta página.


LETRA CON ACORDES

F#m                  E D
Quando buscar, felicidade
F#m                 E   D
Em algum outro lugar longe daqui
F#m                 E       D
Lembre-se que o que você procura
F#m       E     D
Encontrar não está por lá

F#5 Db5 D5 ) (2x)

E|-------------------------------------------------|
B|-------------------------------------------------|
G|-------------------------------------------------|
D|------------------------6-6-6-6-6-6-7-7-7-7-7-7--|
A|-4-4-4-4-4-4-4-4-4-4-4--4-4-4-4-4-4-5-5-5-5-5-5--|
E|-2-2-1-2-2-1-2-2-1-2-2---------------------------|

E|----------------------------------------------------------------------------------|
B|----------------------------------------------------------------------------------|
G|-14-14-14-13-13-13-11-11-11-9-9-9-7-7-7-6-6-6-4-4-4-6-6-6-7-7-7-7-7-11-11-11-11-9-|
D|----------------------------------------------------------------------------------|
A|-12-12-12-11-11-11-9--9--9--7-7-7-5-5-5-4-4-4-2-2-2-4-4-4-5-5-5-5-5-9--9--9--9--7-|
E|----------------------------------------------------------------------------------|

F#5         Db5  D5
Sei que não é normal ver
     F#5      Db5        D5       F#5
Você  andando cabisbaixo por ai
          Db5    D5    F#5        Db5 D5
Mas todos nós às vezes deixamos cair

Db5 D5                 B5
Uma lágrima qualquer
      Db5          D5       Db5         B5
Que carrega sempre uma gota de tristeza
       Db5        D5            Db5
E é preciso entender que o mundo não acaba aí

Refrão:
F#5      D5         B5
 Então, Levante Meu Amigo!
Db5                         F#5
Temos muita estrada adiante
         D5           Db5         B5  E5
Longe do que os olhos podem alcançar

Solo: F#m Dbm D (2x)
      F#5 Db5 D5 (2X)

Db5 D5                 B5
Uma lágrima qualquer
      Db5          D5       Db5         B5
Que carrega sempre uma gota de tristeza
       Db5        D5            Db5
E é preciso entender que o mundo não acaba aí

Refrão 2x:
F#5      D5         B5
 Então, Levante Meu Amigo!
Db5                         F#5
Temos muita estrada adiante
         D5           Db5         B5  E5
Longe do que os olhos podem alcançar.

Video Clip de Levante, Meu Amigo!


ACORDES PARA GUITARRA

PIANO UKELELE
F#m
E
D
F#5
Db5
D5
B5
E5
Dbm


TOP 20: Las más tocadas de Doyoulike?


Toca una Canción al Azar de Doyoulike?

Acordes

Cerrar
F#m
E
D
F#5
Db5
D5
B5
E5
Dbm

01.00


330