California Paradise (Acordes)

The Runaways

Full Álbum: Queens of Noise (1977)
Subida por Marcos

Compartir


Imprimir FAQ
+A
-A

Texto

Desplazamiento

Transportador

Color de Fondo

Archivos

-A
+A
Intro:
Gb|---------------------------------------------------|
Db|---------------------------------------------------|
Ab|---------------------------------------------------|
Eb|--33--55555555555555--33--55555555555555--33-------|

Primeira parte:
Gb|---------------------------------------------------|
Db|---------------------------------------------------|
Ab|--------------------33333333333333333--------------|
Eb|--5555555555555555---------------------------------|

Gb|---------------------------------------------------|
Db|---------------------------------------------------|
Ab|-------------------------------3-0-----------------|
Eb|--3333333333333333--33-5--33-5-----33-5--33--------|

Gb|---------------------------------------------------|
Db|---------------------------------------------------|
Ab|--------------------33333333333333333--------------|
Eb|--5555555555555555---------------------------------|

Gb|---------------------------------------------------|
Db|---------------------------------------------------|
Ab|-------------------------------3-0-----------------|
Eb|--3333333333333333--33-5--33-5-----33-5------------|

Turn up that radio
Hear the Rock and Roll
Malibu shines like summer gold
Wild beaches
In the salty wind
California summer never ends

Refrão:
Gb|---------------------------------------------------|
Db|---------------------------------------------------|
Ab|---------------------------------------------------|
Eb|--1-------1--7-------1-------1--7------------------|

(...)
California, is so nice
California, your paradise

Segunda parte:
Gb|---------------------------------------------------|
Db|---------------------------------------------------|
Ab|---------------------------------------------------|
Eb|--33--55555555555555--33--55555555555555--33-------|

Gb|---------------------------------------------------|
Db|---------------------------------------------------|
Ab|--------------------33333333333333333--------------|
Eb|--5555555555555555---------------------------------|

Gb|---------------------------------------------------|
Db|---------------------------------------------------|
Ab|-------------------------------3-0-----------------|
Eb|--3333333333333333--33-5--33-5-----33-5--33--------|

Gb|---------------------------------------------------|
Db|---------------------------------------------------|
Ab|--------------------33333333333333333--------------|
Eb|--5555555555555555---------------------------------|

Gb|---------------------------------------------------|
Db|---------------------------------------------------|
Ab|-------------------------------3-0-----------------|
Eb|--3333333333333333--33-5--33-5-----33-5------------|

(...)
The kids are ripping up the streets
In their super cars
All night parties and loud guitars
Hot hot neighbourhoods
Its the silver sound
Wicked hollywood goes round and round

Primeira repetição do refrão:
Gb|---------------------------------------------------|
Db|---------------------------------------------------|
Ab|---------------------------------------------------|
Eb|--1-------1--7-------1-------1--7------------------|

(...)
California, you're so nice
California, your paradise

Primeiro solo de guitarra:
Gb|---------------------------------------------------|
Db|---------------------------------------------------|
Ab|------------------------33333333333333333----------|
Eb|--33--5555555555555555-----------------------------|

Gb|---------------------------------------------------|
Db|---------------------------------------------------|
Ab|-------------------------------3-0-----------------|
Eb|--3333333333333333--33-5--33-5-----33-5--33--------|

Gb|---------------------------------------------------|
Db|---------------------------------------------------|
Ab|--------------------33333333333333333--------------|
Eb|--5555555555555555---------------------------------|

Gb|---------------------------------------------------|
Db|---------------------------------------------------|
Ab|-------------------------------3-0-----------------|
Eb|--3333333333333333--33-5--33-5-----33-5------------|

Segunda repetição do refrão:
Gb|---------------------------------------------------|
Db|---------------------------------------------------|
Ab|---------------------------------------------------|
Eb|--1-------1--7-------1-------1--7------------------|

(...)
California, you're so nice
California, your paradise

Segundo solo de guitarra:
Gb|---------------------------------------------------|
Db|---------------------------------------------------|
Ab|--------------------33333333333333333--------------|
Eb|--5555555555555555---------------------------------|

Gb|---------------------------------------------------|
Db|---------------------------------------------------|
Ab|-------------------------------3-0-----------------|
Eb|--3333333333333333--33-5--33-5-----33-5--33--------|

Gb|---------------------------------------------------|
Db|---------------------------------------------------|
Ab|--------------------33333333333333333--------------|
Eb|--5555555555555555---------------------------------|

Gb|---------------------------------------------------|
Db|---------------------------------------------------|
Ab|-------------------------------3-0-----------------|
Eb|--3333333333333333--33-5--33-5-----33-5------------|

Final:
Gb|---------------------------------------------------|
Db|---------------------------------------------------|
Ab|---------------------------------------------------|
Eb|--1-------1--7-------1-------1--7--------3-4-------|

HERRAMIENTAS ACORDESWEB:


LETRA DE LA CANCIÓN:

Ver la letra sola (sin acordes)

DESCARGAR PDF / IMPRIMIR CANCIÓN



ACORDES PARA GUITARRA

PIANO UKELELE


TOP 20: Las más tocadas de The Runaways


Acordes

Cerrar

11.51


55