as NEON ANGELS ON THE ROAD TO RUIN | The Runaways | Acordes

Neon Angels On The Road To Ruin

The Runaways

Acordes

Queens of Noise (1977)
Subida por JesusBrizuela



Cambiar Cifrado
Americano Latino

Cambiar Tonalidad
-1 +1

Partir Pantalla Imprimir FAQ

+A
-A


Ver solo la LETRA
Intro:
E|-----------------------------------------------------|
B|-----------------------------------------------------|
G|-----------------------------------------------------|
D|--------------2~---------------------------------2~--| X2
A|-----------------------------------------------------|
E|--0-0-0--3h4-------4-4-0--2h3-2h3----0-0-0--3h4------|

Toque duas vezes: Joan tocas nas duas vezes;
Lita apenas na primeira e depois mantém um E.
Depois:

E|-----------------------------------------------------------------------
B|-----------------------------------------------------------------------
G|-----------------------------------------------------------------------
D|------------------2~-----------------------------2~--------------------
A|-----------------------------------------------------------------------
E|-(12)-0-0-0--3h4----4-4-0--2h3-2h3---0-0-0--3h4-----4-4-0--2h3-2h3----

------------------------------------------------|
------------------------------------------------|
------------------------------------------------|
-------------2~-----------------------------2~--|
------------------------------------------------|
--0-0-0--3h4----4-4-0--2h3-2h3---0-0-0--3h4-----|

VERSOS: E5 D5 A5

PM . . . . . . . . . . . . . . . . . . . . . . . .
E5 D5 A5
E|------------------|-----------------|------------------------|
B|------------------|-----------------|------------------------|
G|--9-9-9-9-9-9-9-9-|-9-9-9-9-9-9-9-9-|-9-9-9-9-9-9--7---------| X4
D|--9-9-9-9-9-9-9-9-|-9-9-9-9-9-9-9-9-|-9-9-9-9-9-9--7--7------|
A|--7-7-7-7-7-7-7-7-|-7-7-7-7-7-7-7-7-|-7-7-7-7-7-7--5--7------|
E|------------------|-----------------|-----------------5------|

No ultimo verso:
Guitarra 2 (Lita)
E|---------------------------------|
B|---------------------------------|
G|---------------------------------|
D|---------------------------------|
A|---5h7-7-7-7-7----5h7-7-7-7-7----|
E|---------------------------------|

(E5 D5 A5)
No one here gets out alive
Pushing power in overdrive
Cobra kings wet and wild
Love the devil that's in your smile

REFRÃO: A5 A6 B5 B6 E5

A5 A6 B5 B6 E5
E|-----------------|---------------------|
B|-----------------|---------------------|
G|-----------------|----------------9----|
D|-----------------|----------------9----| X3
A|-7-7-9--7-7-7-9--|-9-9-11--9-9-9--7----|
E|-5-5-5--5-5-5-5--|-7-7--7--7-7-7-------|

No quarto verso:

A5 B5
E|-----------------|---------------------|
B|-----------------|---------------------|
G|-----------------|---------------------|
D|-----------------|---------------------|
A|-7---------------|-9-------------------|
E|-5---------------|-7-------------------|

(A5 A6 B5 B6 E5)
Let me tell you what we been doing
Neon angels on the road to ruin
Let me tell you what we been doing
Neon angels on the road to ruin

VERSOS: E5 D5 A5

(E5 D5 A5)
Everybody who's ever on fire
Now's the time for our desire

REFRÃO: A5 A6 B5 B6 E5

SOLO: Ouça e tire!

A guitarra base (Joan) durante o solo toca:

E5 D5 A5
E|------------------|------------------|
B|------------------|------------------|
G|-9-9-9-9-9-9-9-9--|-9-9-9-9-9-9-7----| X4
D|-9-9-9-9-9-9-9-9--|-9-9-9-9-9-9-7-7--|
A|-7-7-7-7-7-7-7-7--|-7-7-7-7-7-7-5-7--|
E|------------------|---------------5--|

A5 C5 G5
E|------------------|------------------|
B|------------------|------------------|
G|------------------|-------------5----| X2
D|-7-7-7-7-7-7-7-7--|-7-7-7-7-7-7-5--5-|
A|-7-7-7-7-7-7-7-7--|-7-7-7-7-7-7-3--5-|
E|-5-5-5-5-5-5-5-5--|-5-5-5-5-5-5----3-|

E5 D5 A5
E|-----------------|
B|-----------------|
G|-9-9-9-9-9-9-7---| X4
D|-9-9-9-9-9-9-7-7-|
A|-7-7-7-7-7-7-5-7-|
E|---------------5-|

VERSOS: E5 D5 A5

(E5 D5 A5)
Highways hard in this modern world
Battered boys and shattered girls
Leather bombers that rule on the streets
Setting fires and living heat

REFRÃO: A5 A6 B5 B6 E5

INTRO:

NUEVO FORO DE MÚSICA

¿Tienes alguna duda, consulta, pregunta, consejo o algo para compartir sobre esta canción?

¡Puedes abrir un hilo en el FORO para que la comunidad te ayude! Hacer una pregunta

ACORDES PARA GUITARRA

PIANO UKELELE
E5
D5
A5
A6
B5
B6
A
C5
G5


Las más tocadas de The Runaways

E5
D5
A5
A6
B5
B6
A
C5
G5