Is It Day Or Night (Acordes)

The Runaways

Full Álbum: The Runaways (1976)
Subida por eliezerali

Compartir


Imprimir FAQ
+A
-A

Texto

Desplazamiento

Transportador

Color de Fondo

Archivos

-A
+A
Bass Tab


Intro
--------------------------------------|
------------------------1-------------|
---3-3^2-3^2-3^2-3^2-3----------------|
--------------------------------------| x4


Verse
--------------------------------------|
------------------------1-------------|
---3-3^2-3^2-3^2-3^2-3----------------|
--------------------------------------| x4
I dont like to live alone

Chorus
----------------------------------------------------------------------|
----5-5------3-3----------------1-----------------------1-------------|
-------------------------3-3^2-----3-3^2-3^2-3^2-3^2-3----------------|
----------------------------------------------------------------------|  x4
Is it day   or night

Repeat verse and chorus

Solo
--------------------------------------|
-------------------------------3------|
--------5-5^4-5^4-5^4-5^4-5-----------|
--------------------------------------|

Key Change

Verse
--------------------------------------|
-------------------------------3------|
--------5-5^4-5^4-5^4-5^4-5-----------|
--------------------------------------|

Chorus
---------------------------------------------------------------|
----7-7------5-5----------3---------------------------3--------|
--------------------5-5^4------5-5^4-5^4-5^4-5^4-5-------------|
---------------------------------------------------------------|
Is it day  or night

*

HERRAMIENTAS ACORDESWEB:


LETRA DE LA CANCIÓN:

Ver la letra sola (sin acordes)

DESCARGAR PDF / IMPRIMIR CANCIÓN



ACORDES PARA GUITARRA

PIANO UKELELE


TOP 20: Las más tocadas de The Runaways


Acordes

Cerrar

21.39


75