Saturday Night Special
The Runaways
Acordes

Subida por Herni
Álbum: And Now... The Runaways ( 1979)



Cambiar Cifrado
Americano Latino

Cambiar Tonalidad
-1 +1

Partir Pantalla Imprimir FAQ

+A
-A
Intro (0:10)
G|------------------------|
D|------------------------|
A|-------------1-1--1-----|
E|(15)-3-3--1---------1--|

Verse1 (0:14) End 1 (0:38) "You pray for"
G|---------------------| |-------------------------|
D|---------------------| |------------1(let ring)--|
A|-----------1-1--1----|(6x) |-------------------------|
E|-3-3--3--1---------1-| |-3-3--3--1---------------|

Verse2 Int (0:43) "You can tie"
G|--------------------------|
D|--------------------------|
A|-1-0------------1-1--1----|
E|-----1--3--3--1---------1-|

Verse2 (0:48) "You get out" End 2 (0:56) "And if I don't"
G|---------------------| |-------------------------|
D|---------------------| |------------1(let ring)--|
A|-----------1-1--1----|(2x) |-------------------------|
E|-3-3--3--1---------1-| |-3-3--3--1---------------|


Chorus (1:01) "She's a Saturday Night Special" End on A# (1:34) "Moooooore"
G|-----------------------------------------------------| |--------------------------|
D|------------------------------------------/6--4-4h6--| |-8(let ring & slide down)-|
A|--1-1-1-----1----1--1h3-2h3-4-4-4-4h6-4--------------|(4x) |--------------------------|
E|--------1h3----1------------------------4------------| |--------------------------|

Verse3 (1:38) "You wanna" End 2 (1:49) "Wanna know why"
G|---------------------| |-------------------------|
D|---------------------| |------------1(let ring)--|
A|-----------1-1--1----|(3x) |-------------------------|
E|-3-3--3--1---------1-| |-3-3--3--1---------------|

Chorus (1:55) "She's a Saturday Night Special" End on A# (2:27) "Moooooore"
G|-----------------------------------------------------| |--------------------------|
D|------------------------------------------/6--4-4h6--| |-8(let ring & slide down)-|
A|--1-1-1-----1----1--1h3-2h3-4-4-4-4h6-4--------------|(4x) |--------------------------|
E|--------1h3----1------------------------4------------| |--------------------------|

Bridge/Gtr Solo (2:31) Bridge/Solo End (2:43)
G|---------------------------------| |---------------------------|
D|---------------------------------| |---------------------------|
A|---------------------------------|(3x) |----------------6(let ring)|
E|-3-3-3-3-4-4-4-4-6-6-6-6-6-6-6-6-| |-3-3-3-3-4-4-4-------------|

Outro (2:49-End) "Yeah, Yeah, Yeah, Saturday Night"
G|-----------------------------------------------------|
D|------------------------------------------/6--4-4h6--|
A|--1-1-1-----1----1--1h3-2h3-4-4-4-4h6-4--------------|(Play until fadeout)
E|--------1h3----1------------------------4------------|

ACORDES PARA GUITARRA

PIANO UKELELE


COMENTARIOS

Aún no hay comentarios,

¡escribe el primero!

Escribe una pregunta, duda o comentario sobre esta canción, te responderemos a la brevedad.

Las más tocadas de The Runaways

Toca una Canción al Azar de The Runaways