Rock And Roll
The Runaways
Acordes

Subida por Salguero07
Álbum: The Runaways ( 1976)



Cambiar Cifrado
Americano Latino

Cambiar Tonalidad
-1 +1

Partir Pantalla Imprimir FAQ

+A
-A
Bass Tabs
Tabbed By *


Intro/Bridge
--------------------------------|
-----------4--7-----------------|
-----5--7-----------------------|
--------------------------------|

--------------------------------|
---------2--5-------------------|
---3--5-------------------------|
--------------------------------|

--------------------------------|
--------------------------------|
--------2--5--7-7---------------|
--3--5--------------------------|

--------------------------------|
-----------4--7-----------------|
-----5--7-----------------------|
--------------------------------| x2

Verse 1
-----------------------------||-----7--5-------------------|
-----------------------------||----------7--5--------------|
----5-5----3-3-------5-5-----||----------------------------|
----------------3-3----------||----------------------------|

-----------------------------|
-----------------------------|
----5-5----3-3-------5-5-----|
----------------3-3----------| x2

Chorus
-----------------------------------------------------|
-------5--7--5-5-5-----------------------------------|
----7----------------------5-5-----------------------|
----------------------------------------------3-3----|
And It Was Alright Its was alright
Intro/Bridge
--------------------------------|
-----------4--7-----------------|
-----5--7-----------------------|
--------------------------------|

--------------------------------|
---------2--5-------------------|
---3--5-------------------------|
--------------------------------|

-------------------------------|
-------------------------------|
-------2--5--7-7---------------|
--3--5-------------------------|

--------------------------------|
-----------4--7-----------------|
-----5--7-----------------------|
--------------------------------| x2

Verse 2
-----------------------------7--5-------------------|
----------------------------------7--5--------------|
----5-5----3-3-------5-5----------------------------|
----------------3-3---------------------------------|

----------------------------5^6^7---------|
------------------------------------------|
----5-5----3-3-------5-5------------------|
----------------3-3-----------------------|

-----------------------------7--5-------------------|
----------------------------------7--5--------------|
----5-5----3-3-------5-5----------------------------|
----------------3-3---------------------------------|

-----------------------------|
-----------------------------|
----5-5----3-3-------5-5-----|
----------------3-3----------|

Chorus
-----------------------------------------------------------|
-------5--7--5-5-5-----------------------------------------|
----7-----------------------5-5----------------------------|
-----------------------------------------------3-3---------|
And It Was Alright Its was alright

*light slide from 12th down
-------------------------------|
---------------------12-------|
--------5-5--------------------|
-------------------------------| x8


Intro/Bridge
--------------------------------|
-----------4--7-----------------|
-----5--7-----------------------|
--------------------------------|

--------------------------------|
---------2--5-------------------|
---3--5-------------------------|
--------------------------------|

-------------------------------|
-------------------------------|
-------2--5--7-7---------------|
--3--5-------------------------|

--------------------------------|
-----------4--7-----------------|
-----5--7-----------------------|
--------------------------------| x2

Chorus
-----------------------------------------------------------|
-------5--7--5-5-5-----------------------------------------|
----7--------------------5-5-------------------------------|
-----------------------------------------------3-3---------|
And It Was Alright Its was alright

End On 5

ACORDES PARA GUITARRA

PIANO UKELELE


COMENTARIOS

Aún no hay comentarios,

¡escribe el primero!

Escribe una pregunta, duda o comentario sobre esta canción, te responderemos a la brevedad.

Las más tocadas de The Runaways

Toca una Canción al Azar de The Runaways