C'mon
The Runaways
Acordes

Subida por Ponchile
Álbum: Flaming Schoolgirls ( 1980)


Más Versiones
Ver. 2

Cambiar Cifrado
Americano Latino

Cambiar Tonalidad
-1 +1

Partir Pantalla Imprimir FAQ

+A
-A
INTRO
E |-----------------------------------------------------------------------
B |-----------------------------------------------------------------------
G |--6--8--10----6--8--10-10-10-10-10-10-10-10-10-10-10-10-10-10-10-------
D |--6--8--10----6--8--10-10-10-10-10-10-10-10-10-10-10-10-10-10-10--10---
A |--4--6--8-----4--6--8--8--8--8--8--8--8--8--8--8--8--8--8--8--8---10---
E |------------------------------------------------------------------8----
8x
VERSE
E |-----------------------------------------------------------------------
B |-----------------------------------------------------------------------
G |--------------------------------10--10-10-----------10--10-10----------
D |--10-10-10-10-10-10-10-10-------10--10-10-10-10-----10--10-10---10-10--
A |--10-10-10-10-10-10-10-10-------8---8--8--10-10-----8---8--8----10-10--
E |--8--8--8--8--8--8--8--8------------------8--8------------------8--8---
Don't turn away...

If you want my love...

E |-----------------------------------------------------------------------
B |-----------------------------------------------------------------------
G |--------------------------------8---8--8---------8---8--8---8--8-------
D |--8--8--8--8--8--8--8--8--------8---8--8--8--8---8---8--8---8--8-------
A |--8--8--8--8--8--8--8--8--------6---6--6--8--8---6---6--6---8--8-------
E |--6--6--6--6--6--6--6--6------------------6--6--------------6--6-------

Your eyes are filled...

E |-----------------------------------------------------------------------
B |-----------------------------------------------------------------------
G |-------------------------------10--10-10----------10--10-10------------
D |--10-10-10-10-10-10-10-10------10--10-10--10-10---10--10-10--10-10-----
A |--10-10-10-10-10-10-10-10------8---8--8---10-10---8---8--8---10-10-----
E |--8--8--8--8--8--8--8--8------------------8--8---------------8--8------

Gonna get involved...

CHORUS
E |-----------------------------------------------------------------------
B |-----------------------------------------------------------------------
G |-6--6--6--6--6--6--6--6--8--8--8--8--8--8--8--8--10-10-10-10-10-10-10-*
D |-6--6--6--6--6--6--6--6--8--8--8--8--8--8--8--8--10-10-10-10-10-10-10-*
A |-4--4--4--4--4--4--4--4--6--6--6--6--6--6--6--6--8--8--8--8--8--8--8--*
E |-----------------------------------------------------------------------
*O acorde 8/10/10 é tocado 16x
Come on...
You know you make me...
Come on...

VERSE 2
CHORUS
VERSE 3
CHORUS

ACORDES PARA GUITARRA

PIANO UKELELE


COMENTARIOS

Aún no hay comentarios,

¡escribe el primero!

Escribe una pregunta, duda o comentario sobre esta canción, te responderemos a la brevedad.

Las más tocadas de The Runaways

Toca una Canción al Azar de The Runaways