Lovers

The Runaways

Acordes

The Runaways (1976)
Subida por HARRYSANCHEZ066



Cambiar Cifrado
Americano Latino

Cambiar Tonalidad
-1 +1

Partir Pantalla Imprimir FAQ

+A
-A


Ver solo la LETRA
(intro)

E|------------------------------------|
B|------------------------------------|
G|----------------5-------------------|
D|-----3-3--------5---5-------8-------| (4x)
A|-----3-3--------3---5-------8-------|
E|-----1-1------------3-------6-------|

(verse)
I want something bad and nice?.
E|--------------------|
B|--------------------|
G|--------------------|
D|--1-1--3------------|
A|--------------------|
E|--------------------|

(guitar 2)
E|---------------------------------------------------- |
B|---------------------------------------------------- |
G|---------------------------------------------------- |
D|-----3-3-3-----3-3-3-----3-3-3-----3-3-3------------ |
A|-----3-3-3-----3-3-3-----3-3-3-----3-3-3------------ |
E|-----1-1-1-----1-1-1-----1-1-1-----1-1-1------------ |
PM . . . . . . . . . . . . . . . . . .

Hot love
E|----------------------------------------------------------|
B|----------------------------------------------------------|
G|----------------5-----------------------------------------|
D|-----3-3--------5---5-------8-----------------------------|
A|-----3-3--------3---5-------8-----------------------------|
E|-----1-1------------3-------6-----------------------------|

I want it nice from paradise
E|--------------------|
B|--------------------|
G|--------------------|
D|--1-1--3------------|
A|--------------------|
E|--------------------|

(guitar 2)
E|---------------------------------------------------- |
B|---------------------------------------------------- |
G|---------------------------------------------------- |
D|-----3-3-3-----3-3-3-----3-3-3-----3-3-3------------ |
A|-----3-3-3-----3-3-3-----3-3-3-----3-3-3------------ |
E|-----1-1-1-----1-1-1-----1-1-1-----1-1-1------------ |
PM . . . . . . . . . . . . . . . . . .

your love
E|----------------------------------------------------------|
B|----------------------------------------------------------|
G|----------------5-----------------------------------------|
D|-----3-3--------5---5-------8-----------------------------|
A|-----3-3--------3---5-------8-----------------------------|
E|-----1-1------------3-------6-----------------------------|

All night long I'm chasing fast
E|------------------------------------|
B|------------------------------------|
G|--------------------3---------3-----|
D|--3-3--5----3--3-5-3--3--3-5-3--3---|
A|------------------------------------|
E|------------------------------------|

(guitar 2)
E|---------------------------------------------------- |
B|---------------------------------------------------- |
G|---------------------------------------------------- |
D|-----5-5-5-----5-5-5-----5-5-5-----5-5-5------------ |
A|-----5-5-5-----5-5-5-----5-5-5-----5-5-5------------ |
E|-----3-3-3-----3-3-3-----3-3-3-----3-3-3------------ |
PM . . . . . . . . . . . . . . . . . .

true love
E|----------------------------------------------------------|
B|----------------------------------------------------------|
G|----------------5-----------------------------------------|
D|-----3-3--------5---5-------8-----------------------------|
A|-----3-3--------3---5-------8-----------------------------|
E|-----1-1------------3-------6-----------------------------|

Make me scream, make it fast
E|------------------------------------|
B|------------------------------------|
G|---------------------3---------3----|
D|--3-3--5----3--3-5-3--3--3-5-3--3---|
A|------------------------------------|
E|------------------------------------|

(guitar 2)
E|---------------------------------------------------- |
B|---------------------------------------------------- |
G|---------------------------------------------------- |
D|-----5-5-5-----5-5-5-----5-5-5-----5-5-5------------ |
A|-----5-5-5-----5-5-5-----5-5-5-----5-5-5------------ |
E|-----3-3-3-----3-3-3-----3-3-3-----3-3-3------------ |
PM . . . . . . . . . . . . . . . . . .

E|----------------------------------------------------------|
B|----------------------------------------------------------|
G|----------------5-----------------------------------------|
D|-----3-3--------5---5-------8-----------------------------|
A|-----3-3--------3---5-------8-----------------------------|
E|-----1-1------------3-------6-----------------------------|

(pre-chorus)
We lovers never say goodbye, We lovers never die
We stop and go so quietly, Cold lovers fade away
E|-----------------------------------------------|
B|-----------------------------------------------|
G|----5-----5------------------------------------|
D|----5-----5--5-----5--8-----8--3---------------| (2x)
A|----3-----3--5-----5--8-----8--3---------------|
E|-------------3-----3--6-----6--1---------------|

(chorus)
E|-----------------------------------------------|
B|-----------------------------------------------|
G|----7-----7-----------5-----5------------------|
D|----7-----7--7-----7--5-----5--5---------------| (2x)
A|----5-----5--7-----7--3-----3--5---------------|
E|-------------5-----5-----------3---------------|

(intro)
(verse)
(pre-chorus)
(intro)

NUEVO FORO DE MÚSICA

¿Tienes alguna duda, consulta, pregunta, consejo o algo para compartir sobre esta canción?

¡Puedes abrir un hilo en el FORO para que la comunidad te ayude! Hacer una pregunta

ACORDES PARA GUITARRA

PIANO UKELELE


Las más tocadas de The Runaways