I'm a Million
The Runaways
Acordes

Subida por Lecteer
Álbum: And Now... The Runaways ( 1979)



Cambiar Cifrado
Americano Latino

Cambiar Tonalidad
-1 +1

Partir Pantalla Imprimir FAQ

+A
-A
Intro:
E|----------------|
B|----------------|
G|----------------|
D|--5/7~----------|
A|----------------|
E|----------------|

Riff Principal:
(D5) (D5) A5 B5
E|-----------------------------------|-------------------------------------|
B|-----------------------------------|-------------------------------------|
G|-----------------------------------|-------------------------------------|
D|--7h8p75---------------------5----|--7h8p75----------------------------|
A|-----------5--7-------5---7--------|-----------5--7-------7---9----------|
E|-----------------------------------|----------------------5---7----------|

Verso 2:
A5 G5 G5 A5 Bm
E|-----------------------------------|-------------------------------------|
B|-----------------------------------|-----------------------7-------------|
G|-----------------------------------|--------------7------------7---------|
D|--7-----5-------------5---------7--|----------9--------------------9-----|
A|--7-----5-----------5---------7----|------9------------------------------|
E|--5-----3-------3---------5--------|--7----------------------------------|
Mother and father came from

A G
E|------------------------------------|------------------------------------|
B|----------------------5-------------|----------------------3-------------|
G|--------------6-----------6---------|--------------4-----------4---------|
D|----------7-------------------7-----|----------5-------------------5-----|
A|------7-----------------------------|------5-----------------------------|
E|--5---------------------------------|--3---------------------------------|
New York City. Working their lives aw-

A G5 A5 Bm
E|------------------------------------|------------------------------------|
B|------------------------------------|----------------------7-------------|
G|--------------6---------------------|--------------7-----------7---------|
D|----------7------------5-------7----|----------9-------------------9-----|
A|------7--------------5-------7------|------9-----------------------------|
E|--5---------------3-------5---------|--7---------------------------------|
-ay. Know that they'll give me

A G
E|------------------------------------|------------------------------------|
B|----------------------5-------------|----------------------3-------------|
G|--------------6-----------6---------|--------------4-----------4---------|
D|----------7-------------------7-----|----------5-------------------5-----|
A|------7-----------------------------|------5-----------------------------|
E|--5---------------------------------|--3---------------------------------|
anything that a little girl needs

A B5
E|------------------------------------|------------------------------------|
B|----------------------5-------------|------------------------------------|
G|--------------6-----------6---------|------------------------------------|
D|----------7-------------------7-----|--9---------------------------------|
A|------7-----------------------------|--9---------------------------------|
E|--5---------------------------------|--7---------------------------------|
to make her life pretty.

Refrão:
C5 B5 C5 E5
E|----------------|-------------------|---------------|--------------------|
B|----------------|-------------------|---------------|--------------------|
G|----------------|-------------------|--9------------|--(9)---------------|
D|-10----9-10-----|-(10)--------------|--9------------|--(9)---------------|
A|-10----9-10-----|-(10)--------------|--7------------|--(7)---------------|
E|--8----7--8-----|--(8)--------------|---------------|--------------------|
Ooooo-oh-ooooh, baby I'm a million, oh, yeah

C5 B5 C5 E5 D5 N.C.
E|----------------|-------------------|---------------|----------|---------|
B|----------------|-------------------|---------------|----------|---------|
G|----------------|-------------------|--9------------|--7-------|---------|
D|-10----9-10-----|--(10)-------------|--9------------|--7-------|---------|
A|-10----9-10-----|--(10)-------------|--7------------|--5-------|---------|
E|--8----7--8-----|---(8)-------------|---------------|----------|---------|
Ooooo-oh-ooooh, baby I'm a million.

(G5) (G5) D5 E5
E|-----------------------------------|-------------------------------------|
B|-----------------------------------|-------------------------------------|
G|--7h8p75---------------------5----|--7h8p75----------------------------|
D|-----------5--7-------5---7--------|-----------5--7-------7---9----------|
A|-----------------------------------|----------------------5---7----------|
E|-----------------------------------|-------------------------------------|

E5
E|----------------|
B|----------------|
G|--9-9-9---------|
D|--9-9-9---------|
A|--7-7-7---------|
E|----------------|

( A5 B5 G5 A5 )

Bm A
Mother and father came from New York City
G A G5 A5
Working their lives away
Bm A
Know they'll give me anything
G A B5
That a little girl needs to make my life pretty

(Riff 1 - 4x)

Seen you before but you're making me sore
But I'm trying not to make a sound
Couldn't help notice you were wanting me
You said I can help you make your life pretty

(Riff 1 - 4x)

Refrão:
C5 B5 C5 E5 E5
Oooo-Oo-Oh, baby, I'm a million, oh yeah
C5 B5 C5 E5 D5
Oooo-Oo-Oh, baby, I'm a million.

Solo: (Riff 1 - 2x)
(Riff 3)

(Riff 1 - 4x)

You like to mess around with your favourite guns
I hope you blow yourself to hell
Cause I've got the need honey I got the greed
Just to make my life a little more pretty

(Riff 1 - 4x)

(Riff 1 - 2x)

(Riff 4 - 2x)

(Riff 1 - 2x)

(Riff 5)

ACORDES PARA GUITARRA

PIANO UKELELE
D5
A5
B5
G5
Bm
A
G
C5
E5


COMENTARIOS

Aún no hay comentarios,

¡escribe el primero!

Escribe una pregunta, duda o comentario sobre esta canción, te responderemos a la brevedad.

Las más tocadas de The Runaways

Toca una Canción al Azar de The Runaways
D5
A5
B5
G5
Bm
A
G
C5
E5