Attack
System of a Down
Acordes

Subida por Miguel
Álbum: Hypnotize ( 2005)


Más Versiones
Ver. 2 Ver. 3 Ver. 4 Ver. 5 Ver. 6

Cambiar Cifrado
Americano Latino

Cambiar Tonalidad
-1 +1

Partir Pantalla Imprimir FAQ

+A
-A
Ab Db Gb Bb Eb    (o mesmo do B.Y.O.B)
ou
C# G# C# F# A# D#

Começo é junto com o baixo

eb|-----------------------------------------------------------------------------|
Bb|-----------------------------------------------------------------------------|
Gb|--8/7-8/7-8/7-8/7-8/7--------------------------------------------------------|
Db|--8/7-8/7-8/7-8/7-8/7--------------------------------------------------------|
Ab|--6/5-6/5-6/5-6/5-6/5--------------------------------------------------------|
Db|------------------------0-0-0-0-0-0-0-0--------------------------------------|
PM |-------------------------------------------|

Verso
eb|-----------------------------------------------------------------------------|
Bb|-----------------------------------------------------------------------------|
Gb|-17---15----------------15-17--14--------------------------------------------|
Db|-0-0-0-0-0-0-0-0-0-0-0-0-0-0-0-0-0-0-0-0-0-0-0-0-0-0-0-0-0-0-0---------------|
Ab|-----------------------------------------------------------------------------|
Db|-----------------------------------------------------------------------------|

eb|-----------------------------------------------------------------------------|
Bb|-----------------------------------------------------------------------------|
Gb|-17---15----------------19--17--14-------------------------1415----17--------|
Db|-0-0-0-0-0-0-0-0-0-0-0-0-0-0-0-0-0-0-0-0-0-0-0-0-0-0-0-0-0-0-0-0-0-0-0-------|
Ab|-----------------------------------------------------------------------------|
Db|-----------------------------------------------------------------------------|

eb|-----------------------------------------------------------------------------|
Bb|-----------------------------------------------------------------------------|
Gb|-19-----------------19----20----17---------------17----19---15---------------|
Db|-0-0-0-0-0-0-0-0-0-0-0-0-0-0 0-0-0-0-0-0-0-0-0-0-0-0-0-0-0-0-0-0-0-0---------|
Ab|-----------------------------------------------------------------------------|
Db|-----------------------------------------------------------------------------|

eb|-----------------------------------------------------------------------------|
Bb|-----------------------------------------------------------------------------|
Gb|---------15----17----141514--------------------------------------------------|
Db|-0-0-0-0-0-0-0-0-0-0-0-0-0-0-0-0-0-0-0-0-0-0-0-0-0-0-------------------------|
Ab|-----------------------------------------------------------------------------|
Db|-----------------------------------------------------------------------------|


Pre-Refrão

eb|-----------------------------------------------------------------------------|
Bb|-----------------------------------------------------------------------------|
Gb|-----------------------------------------------------------------------------|
Db|-5-5--3-3--7-7--5-5--8-8--7-7--10-10--10-10----------------------------------|
Ab|-5-5--3-3--7-7--5-5--8-8--7-7--10-10--10-10----------------------------------|
Db|-5-5--3-3--7-7--5-5--8-8--7-7--10-10--10-10----------------------------------|
PM |-------------------------------------------------------------------------|

eb|-----------------------------------------------------------------------------|
Bb|-----------------------------------------------------------------------------|
Gb|-----------------------------------------------------------------------------|
Db|--12-12-12--10-10-10--8-8-8--10-10-10--8-8-8--7-7-7--8-8-8--7-7-7------------|
Ab|--12-12-12--10-10-10--8-8-8--10-10-10--8-8-8--7-7-7--8-8-8--7-7-7------------|
Db|--12-12-12--10-10-10--8-8-8--10-10-10--8-8-8--7-7-7--8-8-8--7-7-7------------|
PM |-------------------------------------------------------------------------|

Refrão

eb|-----------------------------------------------------------------------------|
Bb|-----------------------------------------------------------------------------|
Gb|-5--8--7---------------------------------------------------------------------|
Db|-5--8--7---------------------------------------------------------------------|
Ab|-3--6--5---------------------------------------------------------------------|
Db|----------000-000-000-000-000-000--------------------------------------------|
PM|-----| |-------------------------------------------------------------------|

eb|-----------------------------------------------------------------------------|
Bb|-----------------------------------------------------------------------------|
Gb|-7/1111-11-11-11-11-11-11-12--11-11--7--7--8---------------------------------|
Db|-7/1111-11-11-11-11-11-11-12--11-11--7--7--8---------------------------------|
Ab|-5/9--9--9--9--9--9--9--9--10--9--9---5--5--6--------------------------------|
Db|-----------------------------------------------------------------------------|
PM |----|

Pre-Refrão

eb|-----------------------------------------------------------------------------|
Bb|-----------------------------------------------------------------------------|
Gb|-----------------------------------------------------------------------------|
Db|-5-5--3-3--7-7--5-5--8-8--7-7--10-10--10-10----------------------------------|
Ab|-5-5--3-3--7-7--5-5--8-8--7-7--10-10--10-10----------------------------------|
Db|-5-5--3-3--7-7--5-5--8-8--7-7--10-10--10-10----------------------------------|
PM |-------------------------------------------------------------------------|

eb|-----------------------------------------------------------------------------|
Bb|-----------------------------------------------------------------------------|
Gb|-----------------------------------------------------------------------------|
Db|--12-12-12--10-10-10--8-8-8--10-10-10--8-8-8--7-7-7--8-8-8--7-7-7------------|
Ab|--12-12-12--10-10-10--8-8-8--10-10-10--8-8-8--7-7-7--8-8-8--7-7-7------------|
Db|--12-12-12--10-10-10--8-8-8--10-10-10--8-8-8--7-7-7--8-8-8--7-7-7------------|
PM |-------------------------------------------------------------------------|

Refrão

eb|-----------------------------------------------------------------------------|
Bb|-----------------------------------------------------------------------------|
Gb|-5--8--7---------------------------------------------------------------------|
Db|-5--8--7---------------------------------------------------------------------|
Ab|-3--6--5---------------------------------------------------------------------|
Db|----------000-000-000-000-000-000--------------------------------------------|
PM|-----| |-------------------------------------------------------------------|

eb|-----------------------------------------------------------------------------|
Bb|-----------------------------------------------------------------------------|
Gb|-7/1111-11-11-11-11-11-11----------------------------------------------------|
Db|-7/1111-11-11-11-11-11-11----------------------------------------------------|
Ab|-5/9--9--9--9--9--9--9--9----------------------------------------------------|
Db|-----------------------------------------------------------------------------|
:

eb|-----------------------------------------------------------------------------|
Bb|-----------------------------------------------------------------------------|
Gb|--8/7-8/7-8/7-8/7-8/7--------------------------------------------------------|
Db|--8/7-8/7-8/7-8/7-8/7--------------------------------------------------------|
Ab|--6/5-6/5-6/5-6/5-6/5--------------------------------------------------------|
Db|------------------------0-0-0-0-0-0-0-0--------------------------------------|
PM |-------------------------------------------|


Verso

eb|-----------------------------------------------------------------------------|
Bb|-----------------------------------------------------------------------------|
Gb|-17---15----------------15-17--14--------------------------------------------|
Db|-0-0-0-0-0-0-0-0-0-0-0-0-0-0-0-0-0-0-0-0-0-0-0-0-0-0-0-0-0-0-0---------------|
Ab|-----------------------------------------------------------------------------|
Db|-----------------------------------------------------------------------------|

eb|-----------------------------------------------------------------------------|
Bb|-----------------------------------------------------------------------------|
Gb|-17---15----------------19--17--14-------------------------1415----17--------|
Db|-0-0-0-0-0-0-0-0-0-0-0-0-0-0-0-0-0-0-0-0-0-0-0-0-0-0-0-0-0-0-0-0-0-0-0-------|
Ab|-----------------------------------------------------------------------------|
Db|-----------------------------------------------------------------------------|

eb|-----------------------------------------------------------------------------|
Bb|-----------------------------------------------------------------------------|
Gb|-19-----------------19----20----17---------------17----19---15---------------|
Db|-0-0-0-0-0-0-0-0-0-0-0-0-0-0 0-0-0-0-0-0-0-0-0-0-0-0-0-0-0-0-0-0-0-0---------|
Ab|-----------------------------------------------------------------------------|
Db|-----------------------------------------------------------------------------|

eb|-----------------------------------------------------------------------------|
Bb|-----------------------------------------------------------------------------|
Gb|---------15----17----141514--------------------------------------------------|
Db|-0-0-0-0-0-0-0-0-0-0-0-0-0-0-0-0-0-0-0-0-0-0-0-0-0-0-------------------------|
Ab|-----------------------------------------------------------------------------|
Db|-----------------------------------------------------------------------------|

Pre Refrão

eb|-----------------------------------------------------------------------------|
Bb|-----------------------------------------------------------------------------|
Gb|-----------------------------------------------------------------------------|
Db|-5-5--3-3--7-7--5-5--8-8--7-7--10-10--10-10----------------------------------|
Ab|-5-5--3-3--7-7--5-5--8-8--7-7--10-10--10-10----------------------------------|
Db|-5-5--3-3--7-7--5-5--8-8--7-7--10-10--10-10----------------------------------|
PM |-------------------------------------------------------------------------|

eb|-----------------------------------------------------------------------------|
Bb|-----------------------------------------------------------------------------|
Gb|-----------------------------------------------------------------------------|
Db|--12-12-12--10-10-10--8-8-8--10-10-10--8-8-8--7-7-7--8-8-8--7-7-7------------|
Ab|--12-12-12--10-10-10--8-8-8--10-10-10--8-8-8--7-7-7--8-8-8--7-7-7------------|
Db|--12-12-12--10-10-10--8-8-8--10-10-10--8-8-8--7-7-7--8-8-8--7-7-7------------|
PM |-------------------------------------------------------------------------|

Refrão

eb|-----------------------------------------------------------------------------|
Bb|-----------------------------------------------------------------------------|
Gb|-5--8--7---------------------------------------------------------------------|
Db|-5--8--7---------------------------------------------------------------------|
Ab|-3--6--5---------------------------------------------------------------------|
Db|----------000-000-000-000-000-000--------------------------------------------|
PM|-----| |-------------------------------------------------------------------|

eb|-----------------------------------------------------------------------------|
Bb|-----------------------------------------------------------------------------|
Gb|-7/1111-11-11-11-11-11-11-12--11-11--7--7--8---------------------------------|
Db|-7/1111-11-11-11-11-11-11-12--11-11--7--7--8---------------------------------|
Ab|-5/9--9--9--9--9--9--9--9--10--9--9---5--5--6--------------------------------|
Db|-----------------------------------------------------------------------------|
PM |----|

eb|-----------------------------------------------------------------------------|
Bb|-----------------------------------------------------------------------------|
Gb|-5--8--7-----------7---------------------------------------------------------|
Db|-5--8--7-----------7---------------------------------------------------------|
Ab|-3--6--5-----------5---------------------------------------------------------|
Db|----------0--0--0--0--0--0--0--0--0--0--0--0---------------------------------|
PM |--------| |---------------------------------------------------|

eb|-----------------------------------------------------------------------------|
Bb|-----------------------------------------------------------------------------|
Gb|-7/1111-11-11-11-11-11-11----------------------------------------------------|
Db|-7/1111-11-11-11-11-11-11----------------------------------------------------|
Ab|-5/9--9--9--9--9--9--9--9----------------------------------------------------|
Db|-----------------------------------------------------------------------------|

eb|-----------------------------------------------------------------------------|
Bb|-----------------------------------------------------------------------------|
Gb|-----------------------------------------------------------------------------|
Db|-4--4--4--4--4--4--4-----1--4----5--4----1--4----5--4------------------------|
Ab|-4--4--4--4--4--4--4-----1--4----5--4----1--4----5--4------------------------|
Db|-4--4--4--4--4--4--4-----1--4----5--4----1--4----5--4------------------------|

eb|---------------------------------------------------------------------------|
Bb|---------------------------------------------------------------------------|
Gb|---------5--8--7-----------------------------------------------------------|
Db|---------5--8--7-----------------------------------------------------------|
Ab|--0--0---3--6--5-----------------------------------------------------------|
Db|--0--0---------------------------------------------------------------------|
PM |----|


| / slide pra cima
| slide pra baixo
| h martela a corda
| p abafa a corda
| ~ vibrato
| + harmonia
| x nota muda

ACORDES PARA GUITARRA

PIANO UKELELE


COMENTARIOS

Aún no hay comentarios,

¡escribe el primero!

Escribe una pregunta, duda o comentario sobre esta canción, te responderemos a la brevedad.

Las más tocadas de System of a Down

Toca una Canción al Azar de System of a Down