B.Y.O.B.
System of a Down
Acordes

Subida por Noe2019
Álbum: Mezmerize ( 2005)


Más Versiones
Ver. 2 Ver. 3 Ver. 4 Ver. 5 Ver. 6

Cambiar Cifrado
Americano Latino

Cambiar Tonalidad
-1 +1

Partir Pantalla Imprimir FAQ

+A
-A


Ver solo la LETRA
Afinação: Db Ab Db Gb Bb Eb

[Intro]

Parte 1 de 2

E|---------------------------------------------------|
B|---------------------------------------------------|
G|---------------------------------------------------| (3x)
D|-7p0-0-0-0-0-0-0-7p0-0-8p0-0-7p0-------------------|
A|---------------------------------------------------|
D|---------------------------------------------------|

E|---------------------------------------------------|
B|---------------------------------------------------|
G|---------------------------------------------------| (3x)
D|-7p0-0-8p0-0-7p0-7p0-0-8p0-0-7p0-------------------|
A|---------------------------------------------------|
D|---------------------------------------------------|

Parte 2 de 2 - (2x)

E|---------------------------------------------------|
B|---------------------------------------------------|
G|---------------------------------------------------|
D|---------------------------------------------------|
A|---------------------------------------------------|
D|-0-0-7p0-0-8p0-0-7p0-0-8p0-0-7p0-0-0-7p0-0-8p0-0---|

E|---------------------------------------------------|
B|---------------------------------------------------|
G|---------------------------------------------------|
D|-9---10--12----------------------------------------|
A|-7----8--10----------------------------------------|
D|---------------------------------------------------|

E|---------------------------------------------------|
B|---------------------------------------------------|
G|---------------------------------------------------|
D|---------------------------------------------------|
A|---------------------------------------------------|
D|-0-0-7p0-0-8p0-0-7p0-0-8p0-0-7p0-0-0-7p0-0-8p0-0---|

E|---------------------------------------------------|
B|---------------------------------------------------|
G|---------------------------------------------------|
D|-12---10--9----------------------------------------|
A|-10----8--7----------------------------------------|
D|---------------------------------------------------|

Why do they always send the poor?

[Primeira Parte]

E|---------------------------------------------------|
B|---------------------------------------------------|
G|---------------------------------------------------|
D|-----------------------------------------10--------|
A|------------------------------------------8--------|
D|-7-0-0-8-0-0-7-0-0-8-0-0-7-0-0-8-0-0-7-------------|

Barbarisms by Barbaras

E|---------------------------------------------------|
B|---------------------------------------------------|
G|---------------------------------------------------|
D|------------------------12----10---9---------------|
A|------------------------10-----8---7---------------|
D|-7-0-0-8-0-0-7-0-0-8-0-----------------------------|

With pointed heels

E|---------------------------------------------------|
B|---------------------------------------------------|
G|---------------------------------------------------|
D|-----------------------------------------10--------|
A|------------------------------------------8--------|
D|-7-0-0-8-0-0-7-0-0-8-0-0-7-0-0-8-0-0-7-------------|

Victorious victories kneel

E|---------------------------------------------------|
B|---------------------------------------------------|
G|---------------------------------------------------|
D|------------------------12----10---9---------------|
A|------------------------10-----8---7---------------|
D|-7-0-0-8-0-0-7-0-0-8-0-----------------------------|

For brand new spankin' deals

E|---------------------------------------------------|
B|---------------------------------------------------|
G|---------------------------------------------------|
D|---------------------------------------------------|
A|---------------------------------------------------|
D|-7-0-0-8-0-0-7-0-0-8-0-0-7-0-0-8-0-0-7-0-0-8-0-0---|

E|---------------------------------------------------|
B|---------------------------------------------------|
G|---------------------------------------------------|
D|----------------------------------------10---------|
A|-----------------------------------------8---------|
D|-7-0-0-8-0-0-7-0-0-8-0-0-7-0-0-8-0-0-7-------------|

Marching forward hypocritic and
Hypnotic computers

E|---------------------------------------------------|
B|---------------------------------------------------|
G|---------------------------------------------------|
D|---------------------------------------------------|
A|---------------------------------------------------|
D|-7-0-0-8-0-0-7-0-0-8-0-0-7-0-0-8-0-0-7-0-0-8-0-0---|

E|---------------------------------------------------|
B|---------------------------------------------------|
G|---------------------------------------------------|
D|-------------------------5----3--------------------|
A|-------------------------5----3--------2-3-2-------|
D|-7-0-0-8-0-0-7-0-0-8-0---5----3--------2-3-2-------|
You depend on our protection
Yet you feed us lies from the tablecloth

[Pré-Refrão]

P.M . . . . . . . . . . . .
E|---------------------------------------------------|
B|---------------------------------------------------|
G|---------------------------------------------------|
D|-0---0--------------------5---5------0-3p2-0-------|
A|-0---0--0-2-3-5-3-2-0-2-0-3---3--0-3----------3-2--|
D|-0---0--0-2-3-5-3-2-0-2-0---------------------3-2--|

P.M . . . . . . .
E|---------------------------------------------------|
B|---------------------------------------------------|
G|---------------------------------------------------|
D|-0---0---------------------------------------------|
A|-0---0--0-5-7-8-7-5-3-5-3-2---3b4r3b4r3b4r3--------|
D|-0---0--0-5-7-8-7-5-3-5-3-2------------------------|

[Refrão]

P.M . . . . . . . . . . . . . . . .
E|---------------------------------------------------|
B|---------------------------------------------------|
G|---------------------------------------------------|
D|-------------------------5-5-5---5---5-5--5-5-5----|
A|-0-0-0---0---0-0---0-0-0-3-3-3---3---3-3--3-3-3----|
D|-0-0-0---0---0-0---0-0-0---------------------------|

P.M . . . . . . . . . . . H.A
E|---------------------------------------------------|
B|---------------------------------------------------|
G|---------------------------------------------------|
D|---------------------------------------------------|
A|-0-0-0---0---0-5-7-8-7-5-3-5-3-2--3b4r3b4r3b4r3----|
D|-0-0-0---0---0-5-7-8-7-5-3-5-3-2-------------------|

Everybody's going to the party have a real good time

P.M . . . . . . . . . . . . . .
E|---------------------------------------------------|
B|---------------------------------------------------|
G|---------------------------------------------------|
D|-------------------------5-5-5---5---5-5--5-5------|
A|-0-0-0---0---0-0---0-0---3-3-3---3---3-3--3-3------|
D|-0-0-0---0---0-0---0-0-----------------------------|

P.M . . . . . . . . . . .
E|---------------------------------------------------|
B|---------------------------------------------------|
G|---------------------------------------------------|
D|---------------------------------------------------|
A|-0-0-0---0---0-5-7-8-7-5-3-5-3-2--3b4r3------------|
D|-0-0-0---0---0-5-7-8-7-5-3-5-3-2-------------------|

Dancing in the desert blowing up the sunshine

[Segunda Parte]

E|---------------------------------------------------|
B|---------------------------------------------------|
G|---------------------------------------------------|
D|---------------------------------------------------|
A|---------------------------------------------------|
D|-7-0-0-8-0-0-7-0-0-8-0-0-7-0-0-8-0-0-7-0-0-8-0-0---|

E|---------------------------------------------------|
B|---------------------------------------------------|
G|---------------------------------------------------|
D|----------------------------------------10---------|
A|-----------------------------------------8---------|
D|-7-0-0-8-0-0-7-0-0-8-0-0-7-0-0-8-0-0-7-------------|

Kneeling roses disappearing into moses' dry mouth

E|---------------------------------------------------|
B|---------------------------------------------------|
G|---------------------------------------------------|
D|---------------------------------------------------|
A|---------------------------------------------------|
D|-7-0-0-8-0-0-7-0-0-8-0-0-7-0-0-8-0-0-7-0-0-8-0-0---|

E|---------------------------------------------------|
B|---------------------------------------------------|
G|---------------------------------------------------|
D|------------------------12----10---9---------------|
A|------------------------10-----8---7---------------|
D|-7-0-0-8-0-0-7-0-0-8-0-----------------------------|

Breaking into Fort Knox stealing Our intentions

E|---------------------------------------------------|
B|---------------------------------------------------|
G|---------------------------------------------------|
D|-----------------------------------------10--------|
A|------------------------------------------8--------|
D|-7-0-0-8-0-0-7-0-0-8-0-0-7-0-0-8-0-0-7-------------|

Hangers sitting dripped in oil

E|---------------------------------------------------|
B|---------------------------------------------------|
G|---------------------------------------------------|
D|------------------------12----10---9---------------|
A|------------------------10-----8---7---------------|
D|-7-0-0-8-0-0-7-0-0-8-0-----------------------------|

Crying freedom

E|---------------------------------------------------|
B|---------------------------------------------------|
G|---------------------------------------------------|
D|-----------------------------------------10--------|
A|------------------------------------------8--------|
D|-7-0-0-8-0-0-7-0-0-8-0-0-7-0-0-8-0-0-7-------------|

Handed to obsoletion

E|---------------------------------------------------|
B|---------------------------------------------------|
G|---------------------------------------------------|
D|-------------------------5----3--------------------|
A|-------------------------5----3--------2-3-2-------|
D|-7-0-0-8-0-0-7-0-0-8-0---5----3--------2-3-2-------|

Still you feed us lies from the tablecloth

[Pré-Refrão]

[Segundo Refrão]

P.M . . . . . . . . . . . . . . . .
E|---------------------------------------------------|
B|---------------------------------------------------|
G|---------------------------------------------------|
D|-------------------------5-5-5---5---5-5--5-5-5----|
A|-0-0-0---0---0-0---0-0-0-3-3-3---3---3-3--3-3-3----|
D|-0-0-0---0---0-0---0-0-0---------------------------|

P.M . . . . . . . . . . .
E|---------------------------------------------------|
B|---------------------------------------------------|
G|---------------------------------------------------|
D|---------------------------------------------------|
A|-0-0-0---0---0-5-7-8-7-5-3-5-3-2--3b4r3b4r3b4r3----|
D|-0-0-0---0---0-5-7-8-7-5-3-5-3-2-------------------|

Everybody's going to the party have a real good time

P.M . . . . . . . . . . . . . .
E|---------------------------------------------------|
B|---------------------------------------------------|
G|---------------------------------------------------|
D|-------------------------5-5-5---5---5-5--5-5------|
A|-0-0-0---0---0-0---0-0---3-3-3---3---3-3--3-3------|
D|-0-0-0---0---0-0---0-0-----------------------------|

P.M . . . . . . . . . . .
E|---------------------------------------------------|
B|---------------------------------------------------|
G|---------------------------------------------------|
D|---------------------------------------------------|
A|-0-0-0---0---0-5-7-8-7-5-3-5-3-2--3b4r3b4r3b4r3----|
D|-0-0-0---0---0-5-7-8-7-5-3-5-3-2-------------------|

Dancing in the desert blowing up the sunshine

P.M . . . . . . . . . . . . . . . .
E|---------------------------------------------------|
B|---------------------------------------------------|
G|---------------------------------------------------|
D|-------------------------5-5-5---5---5-5--5-5-5----|
A|-0-0-0---0---0-0---0-0-0-3-3-3---3---3-3--3-3-3----|
D|-0-0-0---0---0-0---0-0-0---------------------------|

P.M . . . . . . . . . . .
E|---------------------------------------------------|
B|---------------------------------------------------|
G|---------------------------------------------------|
D|---------------------------------------------------|
A|-0-0-0---0---0-5-7-8-7-5-3-5-3-2--3b4r3b4r3b4r3----|
D|-0-0-0---0---0-5-7-8-7-5-3-5-3-2-------------------|

Everybody's going to the party have a real good time

P.M . . . . . . . . . . . . . .
E|---------------------------------------------------|
B|---------------------------------------------------|
G|---------------------------------------------------|
D|-------------------------5-5-5---5---5-5--5-5------|
A|-0-0-0---0---0-0---0-0---3-3-3---3---3-3--3-3------|
D|-0-0-0---0---0-0---0-0-----------------------------|

P.M . . . . . . . . . . .
E|---------------------------------------------------|
B|---------------------------------------------------|
G|---------------------------------------------------|
D|---------------------------------------------------|
A|-0-0-0---0---0-5-7-8-7-5-3-5-3-2--3b4r3------------|
D|-0-0-0---0---0-5-7-8-7-5-3-5-3-2-------------------|

Dancing in the desert blowing up the sunshine

[Terceira Parte]

E|---------------------------------------------------|
B|---------------------------------------------------|
G|---------------------------------------------------| (8x)
D|---------------------------------------------------|
A|---------------------------------------------------|
D|-5/7-7-7-7-7-7-7-10p7-7-8p7-7-5-5------------------|

Blast off
It's party time
And we don't live in a fascist nation

Blast off
It's party time
And where the fuck are you?

[Quarta Parte]

(Repete 4x)
E|---------------------------------------------------|
B|---------------------------------------------------|
G|---------------------------------------------------|
D|---------------------------------------------------|
A|---------------------------------------------------|
D|-12-12-12-12-12-12-12-12-8-8-8-8-8-8-8-8-----------|

E|---------------------------------------------------|
B|---------------------------------------------------|
G|---------------------------------------------------|
D|---------------------------------------------------|
A|-0-0-0-0-0-0-0-0-7p0-0-8p0-0-7p0-------------------|
D|---------------------------------------------------|

Where the fuck are you?
Where the fuck are you?
Why don't presidents fight the war?
Why do they always send the poor?
Why don't presidents fight the war?
Why do they always send the poor?

(Repete 2x)

E|---------------------------------------------------|
B|---------------------------------------------------|
G|---------------------------------------------------|
D|---------------------------------------------------|
A|-0-0-0-0-0-0-0-0-7p0-0-8p0-0-7p0-------------------|
D|---------------------------------------------------|

Why do they always send the poor?
Why do they always send the poor?
Why do they always send the poor?

(Quinta Parte - Igual a Segunda Parte)
Kneeling roses disappearing into
Moses' dry mouth
Breaking into Fort Knox stealing
Our intentions
Hangers sitting dripped in oil
Crying freedom
Handed to obsoletion
Still you feed us lies from the tablecloth

[Pré-Refrão]

[Terceiro Refrão - Segundo Refrão com variação]

P.M . . . . . . . . . . . . . . . .
E|---------------------------------------------------|
B|---------------------------------------------------|
G|---------------------------------------------------|
D|-------------------------5-5-5---5---5-5--5-5-5----|
A|-0-0-0---0---0-0---0-0-0-3-3-3---3---3-3--3-3-3----|
D|-0-0-0---0---0-0---0-0-0---------------------------|

P.M . . . . . . . . . . .
E|---------------------------------------------------|
B|---------------------------------------------------|
G|---------------------------------------------------|
D|---------------------------------------------------|
A|-0-0-0---0---0-5-7-8-7-5-3-5-3-2--3b4r3b4r3b4r3----|
D|-0-0-0---0---0-5-7-8-7-5-3-5-3-2-------------------|

Everybody's going to the party have a real good time

P.M . . . . . . . . . . . . . .
E|---------------------------------------------------|
B|---------------------------------------------------|
G|---------------------------------------------------|
D|-------------------------5-5-5---5---5-5--5-5------|
A|-0-0-0---0---0-0---0-0---3-3-3---3---3-3--3-3------|
D|-0-0-0---0---0-0---0-0-----------------------------|

P.M . . . . . . . . . . .
E|---------------------------------------------------|
B|---------------------------------------------------|
G|---------------------------------------------------|
D|---------------------------------------------------|
A|-0-0-0---0---0-5-7-8-7-5-3-5-3-2--3b4r3b4r3b4r3----|
D|-0-0-0---0---0-5-7-8-7-5-3-5-3-2-------------------|

Dancing in the desert blowing up the sunshine

P.M . . . . . . . . . . . . . . . .
E|---------------------------------------------------|
B|---------------------------------------------------|
G|---------------------------------------------------|
D|-------------------------5-5-5---5---5-5--5-5-5----|
A|-0-0-0---0---0-0---0-0-0-3-3-3---3---3-3--3-3-3----|
D|-0-0-0---0---0-0---0-0-0---------------------------|

P.M . . . . . . . . . . .
E|---------------------------------------------------|
B|---------------------------------------------------|
G|---------------------------------------------------|
D|---------------------------------------------------|
A|-0-0-0---0---0-5-7-8-7-5-3-5-3-2--3b4r3b4r3b4r3----|
D|-0-0-0---0---0-5-7-8-7-5-3-5-3-2-------------------|

Everybody's going to the party have a real good time

P.M . . . . . . . . . . . . . .
E|---------------------------------------------------|
B|---------------------------------------------------|
G|---------------------------------------------------|
D|-------------------------5-5-5---5---5-5--5-5------|
A|-0-0-0---0---0-0---0-0---3-3-3---3---3-3--3-3------|
D|-0-0-0---0---0-0---0-0-----------------------------|

Dancing in the desert blowing up the sun

[Sexta Parte]

(Repete 4x)

E|---------------------------------------------------|
B|---------------------------------------------------|
G|---------------------------------------------------|
D|---------------------------------------------------|
A|---------------------------------------------------|
D|-12-12-12-12-12-12-12-12-8-8-8-8-8-8-8-8-----------|

E|---------------------------------------------------|
B|---------------------------------------------------|
G|---------------------------------------------------|
D|---------------------------------------------------|
A|-0-0-0-0-0-0-0-0-7p0-0-8p0-0-7p0-------------------|
D|---------------------------------------------------|

Where the fuck are you?
Where the fuck are you?
Why don't presidents fight the war?
Why do they always send the poor?
Why don't presidents fight the war?
Why do they always send the poor?

(Repete 2x)

E|---------------------------------------------------|
B|---------------------------------------------------|
G|---------------------------------------------------|
D|---------------------------------------------------|
A|-0-0-0-0-0-0-0-0-7p0-0-8p0-0-7p0-------------------|
D|---------------------------------------------------|

Why do they always send the poor?
Why do they always send the poor?

E|---------------------------------------------------|
B|---------------------------------------------------|
G|---------------------------------------------------|
D|---------------------------------------------------|
A|---------------------------------------------------|
D|-13-12-11-10-9-8-7-6-5-4-3-2-1-0-----|

[Final]

E|---------------------------------------------------|
B|---------------------------------------------------|
G|---------------------------------------------------| (7x)
D|---------------------------------------------------|
A|-7p0-0-0-0-0-0-0-7p0-0-8p0-0-7p0-------------------|
D|---------------------------------------------------|

Why do they always send the poor?

E|---------------------------------------------------|
B|---------------------------------------------------|
G|---------------------------------------------------|
D|---------------------------------------------------|
A|-7p0-0-0-0-0-0-0-7p0-0-8p0-0-7---------------------|
D|---------------------------------------------------|

ACORDES PARA GUITARRA

PIANO UKELELE


COMENTARIOS

Aún no hay comentarios,

¡escribe el primero!

Escribe una pregunta, duda o comentario sobre esta canción, te responderemos a la brevedad.

Las más tocadas de System of a Down

Toca una Canción al Azar de System of a Down