Roulette
System of a Down
Acordes

Subida por rayegarcia
Álbum: Steal This Album! ( 2002)


Más Versiones
Ver. 2 Ver. 3 Ver. 4 Ver. 5 Ver. 6

Cambiar Cifrado
Americano Latino

Cambiar Tonalidad
-1 +1

Partir Pantalla Imprimir FAQ

+A
-A
Afinação: C  G  C  F  A  D

Introdução: Dm F C Eb Bb C
Dm F C Eb Bb C

Dm F C
E|------------------------------------------|
B|----6------6------10------5---------------|
G|------------------------------------------|
D|------------------------------------------|
A|-5----5--5---5-8-----0-3----3-------------|
E|------------------------------------------|

Eb Bb C
E|------------------------------------------|
B|----8------8------3------5----------------|
G|------------------------------------------|
D|------------------------------------------|
A|-6----6--6---0-1----1-3----3--------------|
E|------------------------------------------|


Primeira Parte:

Dm F
I have a problem
C Eb
That I cannot explain
Bb
I have no reason
C Dm
Why it should have been so plain
F
Have no questions
C Eb
But I sure have excuse
Bb
I like the reason
C Dm
Why I should be so confused


Primeiro Refrão:

A
I know
C Bb C
How I feel when I'm around you
Dm A
I don't know
C Bb C Dm F C Eb Bb
How I feel when I'm around you
C Dm F C Eb Bb C
Around you

Dm A
E|------------------------------------------|
B|----6------6------2------2----------------|
G|------------------------------------------|
D|------------------------------------------|
A|-5----5--5---5-0----0--0---0--------------|
E|------------------------------------------|

C Bb C
E|------------------------------------------|
B|----5------5------3------5----------------|
G|------------------------------------------|
D|------------------------------------------|
A|-3----3--3---0-1----1-3----3--------------|
E|------------------------------------------|


Segunda Parte:

Dm F
Left a message
C Eb
But it ain't a bit of use
Bb
I have some pictures
C Dm
The wild might be the deuce
F C Eb
Today you saw, you saw me, you explained
Bb
Playing the show
C Dm
And running down the plane


Segundo Refrão:

A
I know
C Bb C
How I feel when I'm around you
Dm A
I don't know
C Bb C
How I feel when I'm around you
Dm A
I, I know,
C Bb C
How I feel when I'm around you
Dm A
I don't know
C Bb C
How I feel when I'm around you


Solo: Dm F C Eb Bb C

(Violão 1)

E|-10~---10-12-13~---12-13-15~------------------------|
B|----------------------------------------------------|
G|----------------------------------------------------|
D|----------------------------------------------------|
A|----------------------------------------------------|
E|----------------------------------------------------|

E|-12-13-15-13-1210-12-13-12-10-10~------------------|
B|-------------------------------------10-10~---------|
G|----------------------------------------------------|
D|----------------------------------------------------|
A|----------------------------------------------------|
E|----------------------------------------------------|

E|----------------------------------------------------|
B|-10-11-13-11-108-10-11-10-8-8~---------------------|
G|----------------------------------------------------|
D|---------------------------------10-10~-------------|
A|----------------------------------------------------|
E|----------------------------------------------------|

E|----------------------------------------------------|
B|-/11--10--10--8--8--6--6----------------------------|
G|-/12--10--10--9--9--9--9----------------------------|
D|----------------------------------------------------|
A|----------------------------------------------------|
E|----------------------------------------------------|

(Violão 2)

E|-13~---10-12-15~---15-17-18~------------------------|
B|----------------------------------------------------|
G|----------------------------------------------------|
D|----------------------------------------------------|
A|----------------------------------------------------|
E|----------------------------------------------------|

E|-17-18-20-18-17-15-17-18-17-15-15~---13-13~---------|
B|----------------------------------------------------|
G|----------------------------------------------------|
D|----------------------------------------------------|
A|----------------------------------------------------|
E|----------------------------------------------------|

E|-12-13-15-13-12-10-12-13-12-10-10~------------------|
B|-------------------------------------11-11~---------|
G|----------------------------------------------------|
D|----------------------------------------------------|
A|----------------------------------------------------|
E|----------------------------------------------------|

E|-13h15p13--12h13p12--10h12p10--10-------------------|
B|-13--------12--------10--------10-------------------|
G|----------------------------------------------------|
D|----------------------------------------------------|
A|----------------------------------------------------|
E|----------------------------------------------------|


Terceiro Refrão:

Dm A
I, I know
C Bb C
How I feel when I'm around you
Dm A
I don't know
C Bb C
How I feel when I'm around you
Dm A
I, I know
C Bb C
How I feel when I'm around you
Dm A
I don't know
C Bb C Dm F C Eb Bb
How I feel when I'm around you
C Dm F C Eb Bb
Around you
C Dm F C Eb Bb
Around you
C Dm F C Eb Bb
Around you
C Dm
Around you

ACORDES PARA GUITARRA

PIANO UKELELE
Dm
F
C
Eb
Bb
A


COMENTARIOS

Aún no hay comentarios,

¡escribe el primero!

Escribe una pregunta, duda o comentario sobre esta canción, te responderemos a la brevedad.

Las más tocadas de System of a Down

Toca una Canción al Azar de System of a Down
Dm
F
C
Eb
Bb
A