Ddevil
System of a Down
Acordes

Subida por Marcalleligero
Álbum: System of a Down ( 1998)


Más Versiones
Ver. 2 Ver. 3 Ver. 4 Ver. 5 Ver. 6

Cambiar Cifrado
Americano Latino

Cambiar Tonalidad
-1 +1

Partir Pantalla Imprimir FAQ

+A
-A


Ver solo la LETRA
Afinação(C,G,C,F,A,D)
Introdução
D--------|---------------------------------
A--------|--------------------------------- repetir
F--5^vs--|--------------------------------- o quanto for
C--------|--------------------------------- necessario.
G--------|--0-6-0-5-0-6-0-0-5--------------
C--------|--0-6-0-5-0-6-0-0-5--------------

D--------------------------------------------------
A--------------------------------------------------
F--------------------------------------------------
C-------------------------------------------7h6----
G-0-00-00-00-00-00-00-00-00-00-00-00-00--7h6---7h6-
C--------------------------------------------------

D-----------------------------------------
A-----------------------------------------
F-----------------------------------------
C-----------------------------------------
G--5-4-6-5---0-6-0-5-0-6-0-5-6-5----------
C--5-4-6-5---0-6-0-5-0-6-0-5-6-5----------

D----------------------------------
A----------------------------------
F----------------------------------
C-0-6-0-5-0-6-0-0-5----------------
G----------------------------------
C----------------------------------

D---------------------------
A---------------------------
F---------------------------
C---------------------------
G-0-6-0-5-0-6-0-5-----------
C-0-6-0-5-0-6-0-5-----------


Letra:

Plagiarized existence exist,
Among the writers of the word,
Shake your spear at Shakespeare,
Shake your spear at Shakespeare,

Loud and noisy,
Strong refrigerators,
Gaining independence,
Gaining independence,

Stupid people do stupid things,
Smart people outsmart each other,
Then themselves, then themselves,
Then themselves, then themselves,

Take me down there,
Photographic relapse,
People feeding frenzy,
The devil is so lovely,

(Operatic)

My blue moon rivets in exits,
Forewarned customary spirits,
By myself, by myself,
By myself, by myself,

Take me down there,
Photographic relapse,
People feeding frenzy,
The devil is so lovely,

Take me down there,
Photographic relapse,
People feeding frenzy,
The devil is so lovely.

ACORDES PARA GUITARRA

PIANO UKELELE


COMENTARIOS

Aún no hay comentarios,

¡escribe el primero!

Escribe una pregunta, duda o comentario sobre esta canción, te responderemos a la brevedad.

Las más tocadas de System of a Down

Toca una Canción al Azar de System of a Down