Toxicity
System of a Down
Acordes

Subida por ronald777
Álbum: Toxicity ( 2001)


Más Versiones
Ver. 2 Ver. 3 Ver. 4 Ver. 5 Ver. 6

Cambiar Cifrado
Americano Latino

Cambiar Tonalidad
-1 +1

Partir Pantalla Imprimir FAQ

+A
-A
Afinação: C  G  C  F  A  D

Intro:

(Parte 1)
D|---------------------------------------------------
A|----10-----10-----10-----10-----10-----10----------
F|-7------7------7------7------7------7--------------
C|---------------------------------------------------
G|---------------------------------------------------
C|---------------------------------------------------

D|---------------------------------------------------
A|-----13------13------13------13------13------13----
F|-10------10------10------10------10------10--------
C|---------------------------------------------------
G|---------------------------------------------------
C|---------------------------------------------------

D|---------------------------------------------------
A|----10-----10-----10--11-----11--10-----10---------
F|-7------7------7----------7----------7-------------
C|---------------------------------------------------
G|---------------------------------------------------
C|---------------------------------------------------

D|---------------------------------------------------
A|-----13------15------15--13------13--11------11----
F|-10------10------10----------10----------10--------
C|---------------------------------------------------
G|---------------------------------------------------
C|---------------------------------------------------

(Parte 2)
P.M . .
D|---------------------------------------------------
A|---------------------------------------------------
F|---------------------------------------------------
C|-0------------------8--8--8-8--7--7--7-7-----------
G|-0----3-2-0-2-0-----8--8--8-8--7--7--7-7-----------
C|-0----3-2-0-2-0-----8--8--8-8--7--7--7-7-----------

P.M . .
D|---------------------------------------------------
A|---------------------------------------------------
F|---------------------------------------------------
C|-0------------------8--8--8-8--7--7--7-7-----------
G|-0----3-2-0-2-0-----8--8--8-8--7--7--7-7-----------
C|-0----3-2-0-2-0-----8--8--8-8--7--7--7-7-----------

P.M . . . . . . . . . . . . . . . . . . . . . .
D|---------------------------------------------------
A|---------------------------------------------------
F|---------------------------------------------------
C|---------------------------------------------------
G|-3-2-0-2-0-0--3-2-0-2-0-0--3-2-0-2-0-0--3-2-0-2-0-0
C|-3-2-0-2-0-0--3-2-0-2-0-0--3-2-0-2-0-0--3-2-0-2-0-0

D|---------------------------------------------------
A|---------------------------------------------------
F|---------------------------------------------------
C|-8--8--8-8--7--7--7-7------------------------------
G|-8--8--8-8--7--7--7-7------------------------------
C|-8--8--8-8--7--7--7-7------------------------------

P.M . .
D|---------------------------------------------------
A|---------------------------------------------------
F|---------------------------------------------------
C|-0------------------8--8--8-8--7--7--7-7-----------
G|-0----3-2-0-2-0-----8--8--8-8--7--7--7-7-----------
C|-0----3-2-0-2-0-----8--8--8-8--7--7--7-7-----------

(Introdução - Parte 1)

Primeira Parte:
D|---------------------------------------------------
A|----10-----10-----10-----10-----10-----10----------
F|-7------7------7------7------7------7--------------
C|---------------------------------------------------
G|---------------------------------------------------
C|---------------------------------------------------
Conversion the

D|-------------12----------13----------12------------
A|-----13----------13----------13----------13--------
F|-10------10----------10----------10----------10----
C|---------------------------------------------------
G|---------------------------------------------------
C|---------------------------------------------------
Software version 7.0 oh

D|---------------------------------------------------
A|----10-----10-----10--11-----11--10-----10---------
F|-7------7------7----------7----------7-------------
C|---------------------------------------------------
G|---------------------------------------------------
C|---------------------------------------------------
Looking at life through the eyes of a

D|---------------------------------------------------
A|-----13------15------15--13------13--11------11----
F|-10------10------10----------10----------10--------
C|---------------------------------------------------
G|---------------------------------------------------
C|---------------------------------------------------
Tire hub

D|---------------------------------------------------
A|----10-----10-----10-----10-----10-----10----------
F|-7------7------7------7------7------7--------------
C|---------------------------------------------------
G|---------------------------------------------------
C|---------------------------------------------------
Eating seeds as a

D|-------------------------13------------------------
A|-----13------13------13------13------13------13----
F|-10------10------10--------------10------10--------
C|---------------------------------------------------
G|---------------------------------------------------
C|---------------------------------------------------
Pastime activity

D|---------------------------------------------------
A|----10-----10-----10--11-----11--10-----10---------
F|-7------7------7----------7----------7-------------
C|---------------------------------------------------
G|---------------------------------------------------
C|---------------------------------------------------
The toxicity of our

D|---------------------------------------------------
A|-----13------15------15--13------13--11------11----
F|-10------10------10----------10----------10--------
C|---------------------------------------------------
G|---------------------------------------------------
C|---------------------------------------------------
City, of our city

Primeiro Refrão:

P.M . .
D|---------------------------------------------------
A|---------------------------------------------------
F|---------------------------------------------------
C|-0------------------8--8--8-8--7--7--7-7-----------
G|-0----3-2-0-2-0-----8--8--8-8--7--7--7-7-----------
C|-0----3-2-0-2-0-----8--8--8-8--7--7--7-7-----------
You, what do you own the world?
How do you own disorder, disorder

P.M . .
D|---------------------------------------------------
A|---------------------------------------------------
F|---------------------------------------------------
C|-0------------------8--8--8-8--7--7--7-7-----------
G|-0----3-2-0-2-0-----8--8--8-8--7--7--7-7-----------
C|-0----3-2-0-2-0-----8--8--8-8--7--7--7-7-----------
Now, somewhere between the sacred silence
Sacred silence and sleep

P.M . . . . . . . . . . . . . . . . . . . . . .
D|---------------------------------------------------
A|---------------------------------------------------
F|---------------------------------------------------
C|---------------------------------------------------
G|-3-2-0-2-0-0--3-2-0-2-0-0--3-2-0-2-0-0--3-2-0-2-0-0
C|-3-2-0-2-0-0--3-2-0-2-0-0--3-2-0-2-0-0--3-2-0-2-0-0
Somewhere,

D|---------------------------------------------------
A|---------------------------------------------------
F|---------------------------------------------------
C|-8--8--8-8--7--7--7-7------------------------------
G|-8--8--8-8--7--7--7-7------------------------------
C|-8--8--8-8--7--7--7-7------------------------------
Between the sacred silence and sleep

P.M . .
D|---------------------------------------------------
A|---------------------------------------------------
F|---------------------------------------------------
C|-0------------------8--8--8-8--7--7--7-7-----------
G|-0----3-2-0-2-0-----8--8--8-8--7--7--7-7-----------
C|-0----3-2-0-2-0-----8--8--8-8--7--7--7-7-----------
Disorder, disorder, disorder

(Introdução - Parte 1)

Segunda Parte:

D|---------------------------------------------------
A|----10-----10-----10--11-----11--10-----10---------
F|-7------7------7----------7----------7-------------
C|---------------------------------------------------
G|---------------------------------------------------
C|---------------------------------------------------
More wood for the fires,

D|-------------12----------13----------12------------
A|-----13----------13----------13----------13--------
F|-10------10----------10----------10----------10----
C|---------------------------------------------------
G|---------------------------------------------------
C|---------------------------------------------------
Loud neighbors

D|---------------------------------------------------
A|----10-----10-----10--11-----11--10-----10---------
F|-7------7------7----------7----------7-------------
C|---------------------------------------------------
G|---------------------------------------------------
C|---------------------------------------------------
Flashlight reveries caught in the

D|---------------------------------------------------
A|-----13------15------15--13------13--11------11----
F|-10------10------10----------10----------10--------
C|---------------------------------------------------
G|---------------------------------------------------
C|---------------------------------------------------
Headlights of a truck

D|---------------------------------------------------
A|----10-----10-----10-----10-----10-----10----------
F|-7------7------7------7------7------7--------------
C|---------------------------------------------------
G|---------------------------------------------------
C|---------------------------------------------------
Eating seeds as a

D|-------------------------13------------------------
A|-----13------13------13------13------13------13----
F|-10------10------10--------------10------10--------
C|---------------------------------------------------
G|---------------------------------------------------
C|---------------------------------------------------
Pastime activity

D|---------------------------------------------------
A|----10-----10-----10--11-----11--10-----10---------
F|-7------7------7----------7----------7-------------
C|---------------------------------------------------
G|---------------------------------------------------
C|---------------------------------------------------
The toxicity of our

D|---------------------------------------------------
A|-----13------15------15--13------13--11------11----
F|-10------10------10----------10----------10--------
C|---------------------------------------------------
G|---------------------------------------------------
C|---------------------------------------------------
City, of our city

Segundo Refrão:

P.M . .
D|---------------------------------------------------
A|---------------------------------------------------
F|---------------------------------------------------
C|-0------------------8--8--8-8--7--7--7-7-----------
G|-0----3-2-0-2-0-----8--8--8-8--7--7--7-7-----------
C|-0----3-2-0-2-0-----8--8--8-8--7--7--7-7-----------
You, what do you own the world?
How do you own disorder, disorder

P.M . .
D|---------------------------------------------------
A|---------------------------------------------------
F|---------------------------------------------------
C|-0------------------8--8--8-8--7--7--7-7-----------
G|-0----3-2-0-2-0-----8--8--8-8--7--7--7-7-----------
C|-0----3-2-0-2-0-----8--8--8-8--7--7--7-7-----------
Now, somewhere between the sacred silence
Sacred silence and sleep

P.M . . . . . . . . . . . . . . . . . . . . . .
D|---------------------------------------------------
A|---------------------------------------------------
F|---------------------------------------------------
C|---------------------------------------------------
G|-3-2-0-2-0-0--3-2-0-2-0-0--3-2-0-2-0-0--3-2-0-2-0-0
C|-3-2-0-2-0-0--3-2-0-2-0-0--3-2-0-2-0-0--3-2-0-2-0-0
Somewhere,

D|---------------------------------------------------
A|---------------------------------------------------
F|---------------------------------------------------
C|-8--8--8-8--7--7--7-7------------------------------
G|-8--8--8-8--7--7--7-7------------------------------
C|-8--8--8-8--7--7--7-7------------------------------
Between the sacred silence and sleep

P.M . .
D|---------------------------------------------------
A|---------------------------------------------------
F|---------------------------------------------------
C|-0------------------8--8--8-8--7--7--7-7-----------
G|-0----3-2-0-2-0-----8--8--8-8--7--7--7-7-----------
C|-0----3-2-0-2-0-----8--8--8-8--7--7--7-7-----------
Disorder, disorder, disorder

Passagem:

D|---------------------------------------------------
A|---------------------------------------------------
F|---------------------------------------------------
C|---------------------------------------------------
G|---------------------------------------------------
C|-/12--12-12-12--12-14p12--12--14b15----------------

D|---------------------------------------------------
A|---------------------------------------------------
F|--------------------------------------------------- (3x)
C|---------------------------------------------------
G|---------------------------------------------------
C|-12-12-12-12-12-12-14p12-12-14b15~-----------------

Terceira Parte:
P.M . . . . . . . . . . . . . . . . . . . . . .
D|---------------------------------------------------
A|---------------------------------------------------
F|---------------------------------------------------
C|---------------------------------------------------
G|---------------------------------------------------
C|-2-0-0-0-0-0-2-0-0-0-0-0-2-0-0-0-0-0-2-0-0-0-0-0---
P.M . . . . . . . . . . . . . . . . . . . . . .
D|---------------------------------------------------
A|---------------------------------------------------
F|---------------------------------------------------
C|---------------------------------------------------
G|---------------------------------------------------
C|-2-0-0-0-0-0-2-0-0-0-0-0-2-0-0-0-0-0-2-0-0-0-0-0---

P.M. . . . . .
D|---------------------------------------------------
A|---------------------------------------------------
F|--------------------------------------------------- (4x)
C|---------------------------------------------------
G|---------------------------------------------------
C|-0--0-0-0-0-2p0--0--2b3----------------------------

P.M . . . . . . . . . . . . . . . . . . . . . .
D|---------------------------------------------------
A|---------------------------------------------------
F|---------------------------------------------------
C|---------------------------------------------------
G|---------------------------------------------------
C|-2-0-0-0-0-0-2-0-0-0-0-0-2-0-0-0-0-0-2-0-0-0-0-0---
P.M . . . . . . . . . . . . . . . . . . . . . .
D|---------------------------------------------------
A|---------------------------------------------------
F|---------------------------------------------------
C|---------------------------------------------------
G|---------------------------------------------------
C|-2-0-0-0-0-0-2-0-0-0-0-0-2-0-0-0-0-0-2-0-0-0-0-0---

Terceiro Refrão:
P.M . .
D|---------------------------------------------------
A|---------------------------------------------------
F|---------------------------------------------------
C|-0------------------8--8--8-8--7--7--7-7-----------
G|-0----3-2-0-2-0-----8--8--8-8--7--7--7-7-----------
C|-0----3-2-0-2-0-----8--8--8-8--7--7--7-7-----------
You, what do you own the world?
How do you own disorder, disorder

P.M . .
D|---------------------------------------------------
A|---------------------------------------------------
F|---------------------------------------------------
C|-0------------------8--8--8-8--7--7--7-7-----------
G|-0----3-2-0-2-0-----8--8--8-8--7--7--7-7-----------
C|-0----3-2-0-2-0-----8--8--8-8--7--7--7-7-----------
Now, somewhere between the sacred silence
Sacred silence and sleep

P.M . . . . . . . . . . . . . . . . . . . . . .
D|---------------------------------------------------
A|---------------------------------------------------
F|---------------------------------------------------
C|---------------------------------------------------
G|-3-2-0-2-0-0--3-2-0-2-0-0--3-2-0-2-0-0--3-2-0-2-0-0
C|-3-2-0-2-0-0--3-2-0-2-0-0--3-2-0-2-0-0--3-2-0-2-0-0
Somewhere,

D|---------------------------------------------------
A|---------------------------------------------------
F|---------------------------------------------------
C|-8--8--8-8--7--7--7-7------------------------------
G|-8--8--8-8--7--7--7-7------------------------------
C|-8--8--8-8--7--7--7-7------------------------------
Between the sacred silence and sleep

P.M . .
D|---------------------------------------------------
A|---------------------------------------------------
F|---------------------------------------------------
C|-0------------------8--8--8-8--7--7--7-7-----------
G|-0----3-2-0-2-0-----8--8--8-8--7--7--7-7-----------
C|-0----3-2-0-2-0-----8--8--8-8--7--7--7-7-----------
Disorder, disorder, disorder

Final:
P.M . . . . . . . . . . . . . . . . . . . . . .
D|---------------------------------------------------
A|---------------------------------------------------
F|---------------------------------------------------
C|---------------------------------------------------
G|---------------------------------------------------
C|-2-0-0-0-0-0-2-0-0-0-0-0-2-0-0-0-0-0-2-0-0-0-0-0---
P.M . . . . . . . . . . . . . . . . . . . . . .
D|---------------------------------------------------
A|---------------------------------------------------
F|---------------------------------------------------
C|---------------------------------------------------
G|---------------------------------------------------
C|-2-0-0-0-0-0-2-0-0-0-0-0-2-0-0-0-0-0-2-0-0-0-0-0---

P.M. . . . . . . . . . . .
D|---------------------------------------------------
A|---------------------------------------------------
F|---------------------------------------------------
C|---------------------------------------------------
G|---------------------------------------------------
C|-0--0--0-2p0--0-2b3---0-0-0-0-0-0-2p0-0-2b3--------
When I became the sun
I shone life into the man's hearts

P.M. . . . . . . . . . . . .
D|---------------------------------------------------
A|---------------------------------------------------
F|---------------------------------------------------
C|---------------------------------------------------
G|---------------------------------------------------
C|-0--0--0-2p0--0-2b3---0-0-0-0-0-0-2p0-0-2----------
When I became the sun
I shone life into the man's hearts.

ACORDES PARA GUITARRA

PIANO UKELELE


COMENTARIOS

Aún no hay comentarios,

¡escribe el primero!

Escribe una pregunta, duda o comentario sobre esta canción, te responderemos a la brevedad.

Las más tocadas de System of a Down

Toca una Canción al Azar de System of a Down