Lost in Hollywood
System of a Down
Acordes

Subida por JMME2005
Álbum: Mezmerize ( 2005)


Más Versiones
Ver. 2 Ver. 3 Ver. 4 Ver. 5 Ver. 6

Cambiar Cifrado
Americano Latino

Cambiar Tonalidad
-1 +1

Partir Pantalla Imprimir FAQ

+A
-A


Ver solo la LETRA
   INTRO 1:
Eb|---------------------------------------------------------------------------
Bb|---------------------------------------------------------------------------
Gb|---------------------------------------------------------------------------
Db|-2-2-2-2-2-2-2-2---3-3-3-3-3-3-3-3---9-9-9-9-9-9-9-9---7-7-7-7-7-7-7-7-----
Ab|-0-0-0-0-0-0-0-0---0-0-0-0-0-0-0-0---0-0-0-0-0-0-0-0---0-0-0-0-0-0-0-0-----
Eb|---------------------------------------------------------------------------

Eb|-----------------------------------------------------------------------------------
Bb|-----------------------------------------------------------------------------------
Gb|-----------------------------------------------------------------------------------
Db|-2-2-2-2-2-2-2-2---3-3-3-3-3-3-3-3---12-12-12-12-12-12-12-12---7-7-7-7-7-7-7-7-----
Ab|-0-0-0-0-0-0-0-0---0-0-0-0-0-0-0-0---0--0--0--0--0--0--0--0----0-0-0-0-0-0-0-0-----
Eb|-----------------------------------------------------------------------------------

INTRO 2: - Ahhh... ...Ahhh
Eb|---------------------------------------------------------------------------
Bb|---------------------------------------------------------------------------
Gb|---------------------------------------------------------------------------
Db|-2-2-2-2-2-2-2-2---3-3-3-3-3-3-3-3---9-9-9-9-9-9-9-9---7-7-7-7-7-7-7-7-----
Ab|-0-0-0-0-0-0-0-0---0-0-0-0-0-0-0-0---0-0-0-0-0-0-0-0---0-0-0-0-0-0-0-0-----
Eb|---------------------------------------------------------------------------

Eb|-------------------------------------------------------------------------------------------
Bb|-------------------------------------------------------------------------------------------
Gb|-------------------------------------------------------------------------------------------
Db|-2-2-2-2-2-2-2-2---3-3-3-3-3-3-3-3---12-12-12-12-12-12-12-12---14-14-14-14-14-14-14-14-----
Ab|-0-0-0-0-0-0-0-0---0-0-0-0-0-0-0-0---0--0--0--0--0--0--0--0----0--0--0--0--0--0--0--0------
Eb|-------------------------------------------------------------------------------------------

VERSES 1:

I?ll wait here You?re crazy
Eb|-------------------------------------------------------------
Bb|-------------------------------------------------------------
Gb|--------2------4------5---------------5------4------2--------
Db|--2-2----2-2----2-2----2-2------2-2----2-2----2-2----2-2-----
Ab|-0-0------0------0------0------0-0------0------0------0------
Eb|-------------------------------------------------------------

Those vicious streets are filled with...
Eb|-------------------------------------------------------------
Bb|-------------------------------5-----------------------------
Gb|--------2------4------5---------------5------4------2--------
Db|--2-2----2-2----2-2----2-2------2-2----2-2----2-2----2-2-----
Ab|-0-0------0------0------0--------0------0------0------0------
Eb|-------------------------------------------------------------

...strays You should?ve never gone to Hollywood
Eb|-----------------------------------------------------
Bb|-----------3-----3---3-------------------------------
Gb|-5---5-------5-----5-------4---4---4---4---4-5-4-----
Db|-5-----5-------5-----------2-----2---2---------------
Ab|-3-------3-----------------2-------------------------
Eb|---------------------------0-------------------------

VERSES 2:

They find you Two - time you
Eb|-------------------------------------------------------------
Bb|-------------------------------------------------------------
Gb|--------2------4------5---------------5------4------2--------
Db|--2-2----2-2----2-2----2-2------2-2----2-2----2-2----2-2-----
Ab|-0-0------0------0------0------0-0------0------0------0------
Eb|-------------------------------------------------------------

Say you?re the best they?ve ever...
Eb|-------------------------------------------------------------
Bb|-------------------------------5-----------------------------
Gb|--------2------4------5---------------5------4------2--------
Db|--2-2----2-2----2-2----2-2------2-2----2-2----2-2----2-2-----
Ab|-0-0------0------0------0--------0------0------0------0------
Eb|-------------------------------------------------------------

...seen You should?ve never trusted Hollywood
Eb|-----------------------------------------------------
Bb|-----------3-----3---3-------------------------------
Gb|-5---5-------5-----5-------4---4---4---4---4-5-4-----
Db|-5-----5-------5-----------2-----2---2---------------
Ab|-3-------3-----------------2-------------------------
Eb|---------------------------0-------------------------


PRÉ-VERSES 3:
Eb|---------------------------------------------------------------------------
Bb|---------------------------------------------------------------------------
Gb|---------------------------------------------------------------------------
Db|-2-2-2-2-2-2-2-2---3-3-3-3-3-3-3-3---9-9-9-9-9-9-9-9---7-7-7-7-7-7-7-7-----
Ab|-0-0-0-0-0-0-0-0---0-0-0-0-0-0-0-0---0-0-0-0-0-0-0-0---0-0-0-0-0-0-0-0-----
Eb|---------------------------------------------------------------------------

Eb|-------------------------------------------------------------------------------------------
Bb|-------------------------------------------------------------------------------------------
Gb|-------------------------------------------------------------------------------------------
Db|-2-2-2-2-2-2-2-2---3-3-3-3-3-3-3-3---12-12-12-12-12-12-12-12---14-14-14-14-14-14-14-14-----
Ab|-0-0-0-0-0-0-0-0---0-0-0-0-0-0-0-0---0--0--0--0--0--0--0--0----0--0--0--0--0--0--0--0------
Eb|-------------------------------------------------------------------------------------------


ENTER THE DRUMS:

VERSES 3:

I wrote you And told you
Eb|-------------------------------------------------------------
Bb|-------------------------------------------------------------
Gb|--------2------4------5---------------5------4------2--------
Db|--2-2----2-2----2-2----2-2------2-2----2-2----2-2----2-2-----
Ab|-0-0------0------0------0------0-0------0------0------0------
Eb|-------------------------------------------------------------

You were the biggest fish out...
Eb|-------------------------------------------------------------
Bb|-------------------------------5-----------------------------
Gb|--------2------4------5---------------5------4------2--------
Db|--2-2----2-2----2-2----2-2------2-2----2-2----2-2----2-2-----
Ab|-0-0------0------0------0--------0------0------0------0------
Eb|-------------------------------------------------------------

...here You should?ve never gone to Hollywood
Eb|-----------------------------------------------------
Bb|-----------3-----3---3-------------------------------
Gb|-5---5-------5-----5-------4---4---4---4---4-5-4-----
Db|-5-----5-------5-----------2-----2---2---------------
Ab|-3-------3-----------------2-------------------------
Eb|---------------------------0-------------------------


VERSES 4:

They take you And make you
Eb|-------------------------------------------------------------
Bb|-------------------------------------------------------------
Gb|--------2------4------5---------------5------4------2--------
Db|--2-2----2-2----2-2----2-2------2-2----2-2----2-2----2-2-----
Ab|-0-0------0------0------0------0-0------0------0------0------
Eb|-------------------------------------------------------------

They look at you in disgusting...
Eb|-------------------------------------------------------------
Bb|-------------------------------5-----------------------------
Gb|--------2------4------5---------------5------4------2--------
Db|--2-2----2-2----2-2----2-2------2-2----2-2----2-2----2-2-----
Ab|-0-0------0------0------0--------0------0------0------0------
Eb|-------------------------------------------------------------

...ways You should?ve never trusted Hollywood
Eb|-----------------------------------------------------
Bb|-----------3-----3---3-------------------------------
Gb|-5---5-------5-----5-------4---4---4---4---4-5-4-----
Db|-5-----5-------5-----------2-----2---2---------------
Ab|-3-------3-----------------2-------------------------
Eb|---------------------------0-------------------------


AFTER VERSES 4: - 1:55

I was standing on the wall ]
Feeling ten feet tall ] - X2
All you maggots smoking fags ]
On Santa Monica Boulevard ]

This is my front page ]
This is my new age ] - X1
All you bitches put your hands in the air ]
And wave 'em like you just don?t care ]

All you maggots smoking fags ]
Out there on Sunset Boulevard ] - X2
All you bitches put your hands in the air ]
And wave 'em like you just don?t care ]

C5 G5 A5+ A5 C5 B5+ D5 C5
Eb|---------------------------------------------------------------------------
Bb|---------------------------------------------------------------------------
Gb|---------------------------------------------------------------------------
Db|-7---5-----7---5---------------------3---2-----3---2-----------------------
Ab|-------------------7---5-----7---5---------------------3---2---3/5---3-----
Eb|---------------------------------------------------------------------------


VERSES 8:

Eb|---------0-------------------0-------------------0--------------------0-----------
Bb|-------1---1---------------0---0-------------1-------1------------0-------0-------
Gb|-----2-------2-----------1-------1---------2---2---2---2--------1---1---1---1-----
Db|---2-----------2-------2-----------2-----3--------------------2-------------------
Ab|-0-------------------2------------------------------------------------------------
Eb|----------------------------------------------------------------------------------

Phony people come to pray
Eb|---------1-------------------0-------------------0-------------------0-----------
Bb|-----3-------3-------------1---1---------------0---0---------------0---0---------
Gb|---2---2---2---2---------2-------2-----------1-------1-----------1-------1-------
Db|-0---------------------2-----------2-------2-----------2-------2-----------2-----
Ab|---------------------0-------------------2-------------------2-------------------
Eb|---------------------------------------------------------------------------------

Ahhh... Ahhh... Look all of them beg to stay
Eb|---------0-------------------0-------------------0--------------------0-----------
Bb|-------1---1---------------0---0-------------1-------1------------0-------0-------
Gb|-----2-------2-----------1-------1---------2---2---2---2--------1---1---1---1-----
Db|---2-----------2-------2-----------2-----3--------------------2-------------------
Ab|-0-------------------2------------------------------------------------------------
Eb|----------------------------------------------------------------------------------

Phony people come to pray
Eb|---------1-------------------0-------------------0-------------------0-----------
Bb|-----3-------3-------------1---1---------------0---0---------------0---0---------
Gb|---2---2---2---2---------2-------2-----------1-------1-----------1-------1-------
Db|-0---------------------2-----------2-------2-----------2-------2-----------2-----
Ab|---------------------0-------------------2-------------------2-------------------
Eb|---------------------------------------------------------------------------------

Look all of them beg to stay
"The lines in the letter said, We have gone to Hackensack"
Eb|---------0-------------------0-------------------0--------------------0-----------
Bb|-------1---1---------------0---0-------------1-------1------------0-------0-------
Gb|-----2-------2-----------1-------1---------2---2---2---2--------1---1---1---1-----
Db|---2-----------2-------2-----------2-----3--------------------2-------------------
Ab|-0-------------------2------------------------------------------------------------
Eb|----------------------------------------------------------------------------------

Phony people come to pray
Eb|---------1-------------------0-------------------0-------------------0-----------
Bb|-----3-------3-------------1---1---------------0---0---------------0---0---------
Gb|---2---2---2---2---------2-------2-----------1-------1-----------1-------1-------
Db|-0---------------------2-----------2-------2-----------2-------2-----------2-----
Ab|---------------------0-------------------2-------------------2-------------------
Eb|---------------------------------------------------------------------------------


AFTER VERSES 8: - 3:35

All you maggots smoking fags ]
On Santa Monica Boulevard ]
All you maggots smoking fags ] - X3
Out there on Sunset Boulevard ]
All you maggots smoking fags ]
Out there on Hollywood Boulevard ]

You should?ve never trusted Hollywood ] - X2
You should?ve never gone to Hollywood ]

All you bitches put your hands in the air ] - X2
And wave 'em like you just don?t care ]

C5 G5 A5+ A5 C5 B5+ D5 C5
Eb|---------------------------------------------------------------------------
Bb|---------------------------------------------------------------------------
Gb|---------------------------------------------------------------------------
Db|-7---5-----7---5---------------------3---2-----3---2-----------------------
Ab|-------------------7---5-----7---5---------------------3---2---3/5---3-----
Eb|---------------------------------------------------------------------------



ENDING:
Eb|-------------------------------------------------------------
Bb|-------------------------------------------------------------
Gb|--------2------4------5---------------5------4------2--------
Db|--2-2----2-2----2-2----2-2------2-2----2-2----2-2----2-2-----
Ab|-0-0------0------0------0------0-0------0------0------0------
Eb|-------------------------------------------------------------

Eb|-------------------------------------------------------------
Bb|-------------------------------5-----------------------------
Gb|--------2------4------5---------------5------4------2--------
Db|--2-2----2-2----2-2----2-2------2-2----2-2----2-2----2-2-----
Ab|-0-0------0------0------0--------0------0------0------0------
Eb|-------------------------------------------------------------

You should?ve never trusted Hollywood
Eb|---------------------------------------------------------------
Bb|-----------3-----3---3-----------------------------------------
Gb|-5---5-------5-----5-----------4---4---4---4---4-5-4-----2-----
Db|-5-----5-------5---------------2-----2---2---------------2-----
Ab|-3-------3---------------------2-------------------------0-----
Eb|-------------------------------0-------------------------------





Lost In Hollywood

I?ll wait here
You?re crazy
Those vicious streets are filled with strays
You should?ve never gone to Hollywood

They find you
Two-time you
Say you?re the best they?ve ever seen
You should?ve never trusted Hollywood

I wrote you
And told you
You were the biggest fish out here
You should?ve never gone to Hollywood

They take you
And make you
They look at you in disgusting ways
You should?ve never trusted Hollywood

I was standing on the wall
Feeling ten feet tall
All you maggots smoking fags
On Santa Monica Boulevard

This is my front page
This is my new age
All you bitches put your hands in the air
And wave 'em like you just don?t care

All you maggots smoking fags
Out there on Sunset Boulevard
All you bitches put your hands in the air
And wave 'em like you just don?t care

Phony people come to pray
Look at all of them beg to stay
Phony people come to pray
("The lines in the letter said")
("We have gone to Hackensack")
Phony people come to pray

All you maggots smoking fags
On Santa Monica Boulevard
All you maggots smoking fags
Out there on Sunset Boulevard
All you maggots smoking fags
Out there on Hollywood Boulevard

You should?ve never trusted Hollywood
You should?ve never gone to Hollywood

All you bitches put your hands in the air
And wave 'em like you just don?t care

You should?ve never trusted Hollywood

ACORDES PARA GUITARRA

PIANO UKELELE
C5
G5
A7b13
A5
B7b13
D5


COMENTARIOS

Aún no hay comentarios,

¡escribe el primero!

Escribe una pregunta, duda o comentario sobre esta canción, te responderemos a la brevedad.

Las más tocadas de System of a Down

Toca una Canción al Azar de System of a Down
C5
G5
A7b13
A5
B7b13
D5