Innervision
System of a Down
Acordes

Subida por Elkiinfr
Álbum: Steal This Album! ( 2002)


Más Versiones
Ver. 2 Ver. 3 Ver. 4 Ver. 5 Ver. 6

Cambiar Cifrado
Americano Latino

Cambiar Tonalidad
-1 +1

Partir Pantalla Imprimir FAQ

+A
-A


Ver solo la LETRA
|-----------------------------------------------|
|-----------------------------------------------|
|-----------------------------------------------|
|--------1--1-1--1-1--1-------------------------|
|--------1--1-1--1-1--1-------------------------|
|-15/----1--1-1--1-1--1-------------------------|

|-----------------------------------------------|
|-----------------------------------------------|
|-----------------------------------------------|
|-----------------------------------------------|
|-----------------------------------------------|
|-0-0-0-5-5-5-3-3-3-1-1-1-3-3-3-1-1-------------|

|-----------------------------------------------|
|-----------------------------------------------|
|-----------------------------------------------|
|-----------------------------------------------|
|-----------------------------------------------|
|-0-0-0-5-5-5-7-7-7-3-3-3-7-7-7-3-3-------------|

Parte limpa:
|-----------------------------------------------|
|-----------------------------------------------|
|-----7-----------7-----------------------------|
|---5-----------5-------------------------------|
|-6-----------6---------------------------------|
|-----------------------------------------------|

|-----------------------------------------------|
|-----------------------------------------------|
|-----------------------------------------------|
|-----------------------------------------------|
|-0--5--7--3--7--5------------------------------|
|-0--5--7--3--7--5------------------------------|

|-----------------------------------------------|
|-----------------------------------------------|
|-----------------------------------------------|
|-----------------------------------------------|
|-1--1------------------------------------------|
|-1--1------------------------------------------|
Innervisiooon...

Parte calma:
|--5-5-5-5-5------4-4-4-4-4---------------------|
|--3-3-3-3-3------2-2-2-2-2---------------------|
|-----------------------------------------------|
|-----------------------------------------------|
|-----------------------------------------------|
|-----------------------------------------------|

ACORDES PARA GUITARRA

PIANO UKELELE


COMENTARIOS

Aún no hay comentarios,

¡escribe el primero!

Escribe una pregunta, duda o comentario sobre esta canción, te responderemos a la brevedad.

Las más tocadas de System of a Down

Toca una Canción al Azar de System of a Down