Compartir


Imprimir FAQ
+A
-A

Texto

Desplazamiento

Transportador

Color de Fondo

Archivos

-A
+A
Ae, fiquem ligados, cordas afinadas em C G C F A D

A
  2x:                           1x:                       1x:
D:-----0-2^3^2-0-------------|-----0-2^3^2-0-----5-------|-------15-------15--------------|
A:---0-----------------------|---0-------------3-----3---|----15-------15--------8-----10-|
F:-------------------4-----4-|---------------------4---4-|-12-------12---------7-----9----|
C:-2---------------2-----2---|-2-------------0-----------|-------------------5-----7------|
G:---------------0-----0-----|---------------------------|--------------------------------|
C:---------------------------|---------------------------|--------------------------------|


B
D:-----0-2^3^2-0-------------|-----0-2^3^2-0---------|-------------------------------|
A:---0-----------------------|---0-------------------|-------------------------------|
F:-------------------4-----4-|-----------------------|-------------------------------|
C:-2---------------2-----2---|-2-------------5--7--9-|-3---3---3---3---2---2---2---2-|
G:---------------0-----0-----|---------------5--7--9-|-3---3---3---3---2---2---2---2-|
C:---------------------------|---------------5--7--9-|-3---3---3---3---2---2---2---2-|

D:--------------------------------|
A:--------------------------------|
F:--------------------------------|
C:-3---3---5--7--9--2---2---2---2-|
G:-3---3---5--7--9--2---2---2---2-|
C:-3---3---5--7--9--2---2---2---2-|


C
D:-------------------|-------------------|----------------------------|-------------------|
A:-------------------|-------------------|----------------------------|-------------------|
F:-------------------|-------------------|----------------------------|-------------------|
C:-2--2b3r2----------|-2--2b3r2----------|-3--3-5-3-5/7-5-3-5-3^5^3/2-|-2--2b3r2----------|
G:-2--------3--2b3r2-|-2--------3--2b3r2-|-3--------------------------|-2--------3--2b3r2-|
C:-2-----------------|-2-----------------|-3--------------------------|-2-----------------|


D
D:-3-|
A:-5-|
F:-4-|
C:-2-|
G:---|
C:---|


ORDER:
=====

A 3x
B
C 2x
A
B
C 2x
A 2x
B
C 2x
A
D

HERRAMIENTAS ACORDESWEB:


LETRA DE LA CANCIÓN:

Ver la letra sola (sin acordes)

OTRAS VERSIONES DE LA MISMA CANCIÓN:

Ver. 2 Ver. 3 Ver. 4 Ver. 5 Ver. 6

DESCARGAR PDF / IMPRIMIR CANCIÓN



ACORDES PARA GUITARRA

PIANO UKELELE


TOP 20: Las más tocadas de System of a Down


Acordes

Cerrar

00.03

x

224