as P.L.U.C.K. | System of a Down | Acordes

P.L.U.C.K.

System of a Down

Acordes

System of a Down (1998)
Subida por FranciscoJavierSAAVEDRA


Más Versiones
Ver. 2 Ver. 3 Ver. 4 Ver. 5 Ver. 6

Cambiar Cifrado
Americano Latino

Cambiar Tonalidad
-1 +1

Partir Pantalla Imprimir FAQ

+A
-A
Afinação(C,G,C,F,A,D)
No começo abafe, depois va soltando devagar.
D|---------------------------------|
A|---------------------------------|
F|--9-9-9-9-9-9-9-9-9-9-9-9-9-9-9--|
C|---------------------------------|
G|---------------------------------|
C|---------------------------------|

(abafado) (abafado)
D|-----------------------------------------|--------------------------|
A|-----------------------------------------|--------------------------|
F|-----------------------------------------|--------------------------|
C|--2-2-2-2-2-2-2-2-2-2-2-2--2--2--2--2--2-|--2-2-2-2-2-2-2-2-2-2-2-2-|
G|--2-2-2-2-2-2-2-2-2-2-2-2--2--2--2--2--2-|--2-2-2-2-2-2-2-2-2-2-2-2-|
C|--2-2-2-2-2-2-2-2-2-2-2-2--2--2--2--2--2-|--2-2-2-2-2-2-2-2-2-2-2-2-|

()abafado

D|------------------------------------------------|
A|------------------------------------------------|
F|------------------------------------------------|
C|-(2)(2)(2)(2)-2-(2)(2)(2)(2)-2h3-(2)(2)(2)(2)-2-|
G|-(2)(2)(2)(2)-2-(2)(2)(2)(2)-2h3-(2)(2)(2)(2)-2-|
C|-(2)(2)(2)(2)-2-(2)(2)(2)(2)-2h3-(2)(2)(2)(2)-2-|


D|---------------------------------|
A|---------------------------------|
F|---------------------------------|
C|-(2)(2)(2)(2)-2-(2)(2)(2)(2)-2h3-|
G|-(2)(2)(2)(2)-2-(2)(2)(2)(2)-2h3-|
C|-(2)(2)(2)(2)-2-(2)(2)(2)(2)-2h3-|

D|-------------------------------------------|
A|-------------------------------------------|
F|-79-9-9-9109-9-9-979-9-9-9109-9-9-9-|
C|-------------------------------------------|
G|-57-7-7-78-7-7-7-757-7-7-787-7-7-7--|
C|-------------------------------------------|

Verso:1
D|-------------------------------------------------|
A|-------------------------------------------------|
F|--7/9-9-9-99/13-13-13-1313/15-15-15--9/13-13-13--|
C|-------------------------------------------------|
G|--5/7-7-7-77/11-11-11-1111/13-13-13--7/11-11-11--|
C|-------------------------------------------------|


Verso:2
D|--------------------|
A|--------------------|Revolution the old, the solution......
F|--------------------|
C|--2-(2)-(2)-(2)-0-2-|
G|--2-(2)-(2)-(2)-0-2-|
C|--2-(2)-(2)-(2)-0-2-|
Repete Verso:1
Repete Verso:2

D|------------------------------------------|---------|
A|------------------------------------------|---------|
F|------------------------------------------|---------|
C|--2-2-2-2------------------5--5--5-5--3-3-|-3-2-2-2-|
G|--2-2-2-2----3-3-3-3/5/3-0-5--5--5-5--3-3-|-3-2-2-2-|
C|--2-2-2-2------------------5--5--5-5--3-3-|-3-2-2-2-|




Letra:

Elimination, Elimination, Elimination

Die, Why, Walk Down, Walk Down

A whole race Genocide,
Taken away all of our pride,
A whole race Genocide,
Taken away, watch them all fall down.

Revolution, the only solution,
The armed response of an entire nation,
Revolution, the only solution,
We've taken all your shit, now it's time for restitution.

Recognition, Restoration, Reparation,
Recognition, Restoration, Reparation,
Watch them all fall down.

Revolution, the only solution,
The armed response of an entire nation,
Revolution, the only solution,
We've taken all your shit, now it's time for restitution.

The plan was mastered and called Genocide (Never want to see you around)
Took all the children and then we died, (Never want to see you around)
The few that remained were never found, (Never want to see you around)
All in a system of Down......Down.....Down.......Down........Walk Down...........


Minha correção:

D|---------------------------------|
A|---------------------------------| ** palm mute throughout and
F|--9-9-9-9-9-9-9-9-9-9-9-9-9-9-9--| graduately release at end of
C|---------------------------------| bar
G|---------------------------------|
C|---------------------------------|

(play three times) (play once)
D|-----------------------------------------|--------------------------|
A|-----------------------------------------|--------------------------|
F|-----------------------------------------|--------------------------|
C|--2-2-2-2-2-2-2-2-2-2-2-2--2--2--2--2--2-|--2-2-2-2-2-2-2-2-2-2-2-2-|
G|--2-2-2-2-2-2-2-2-2-2-2-2--2--2--2--2--2-|--2-2-2-2-2-2-2-2-2-2-2-2-|
C|--2-2-2-2-2-2-2-2-2-2-2-2--2--2--2--2--2-|--2-2-2-2-2-2-2-2-2-2-2-2-|
pm.......................

D|--------------------------|
A|--------------------------|
F|--------------------------|
C|--2-2-2-2-2-2-2-2-2-2-2-2-|
G|--2-2-2-2-2-2-2-2-2-2-2-2-|
C|--2-2-2-2-2-2-2-2-2-2-2-2-|
pm...............

D|--------------------------|
A|--------------------------|
F|--------------------------|
C|--2-2-2-2-2-2-2-2-2-2-2h3-|
G|--2-2-2-2-2-2-2-2-2-2-2h3-|
C|--2-2-2-2-2-2-2-2-2-2-2h3-|
pm...

VERSE:

D|-------------------------------------------------|
A|-------------------------------------------------|
F|--7/9-9-9-99/13-13-13-1313/15-15-15-10/13-13-13--|
C|-------------------------------------------------|
G|--5/7-7-7-77/11-11-11-1111/13-13-13--8/11-11-11--|
C|-------------------------------------------------|

CHORUS:

D|--------------|
A|--------------|
F|--------------|
C|--2-2-2-2-0-2-|
G|--2-2-2-2-0-2-|
C|--2-2-2-2-0-2-|
pm.......

INTERLUDE/OUTRO:

D|------------------------------------------|---------|
A|------------------------------------------|---------|
F|------------------------------------------|---------|
C|--2-2-2-2------------------5--5--5-5--3-3-|-3-3-3-3-|
G|--2-2-2-2----3-3-3-3/5/3-0-5--5--5-5--3-3-|-3-3-3-3-|
C|--2-2-2-2------------------5--5--5-5--3-3-|-3-3-3-3-|





NUEVO FORO DE MÚSICA

¿Tienes alguna duda, consulta, pregunta, consejo o algo para compartir sobre esta canción?

¡Puedes abrir un hilo en el FORO para que la comunidad te ayude! Hacer una pregunta

ACORDES PARA GUITARRA

PIANO UKELELE


Las más tocadas de System of a Down