Hypnotize
System of a Down
Acordes

Subida por Damian
Álbum: Hypnotize ( 2005)


Más Versiones
Ver. 2 Ver. 3 Ver. 4 Ver. 5 Ver. 6

Cambiar Cifrado
Americano Latino

Cambiar Tonalidad
-1 +1

Partir Pantalla Imprimir FAQ

+A
-A
Afinação: Db  Ab  Db  Gb  Bb  Eb

Introdução:

(Parte 1 - 2x)

Eb|----------------------------------------------------|
Bb|-1---1---3---3---3---3---3---3----------------------|
Gb|---0---0---0---0---0---0---0---0--------------------|
Db|----------------------------------------------------|
Ab|----------------------------------------------------|
Db|----------------------------------------------------|

Eb|----------------------------------------------------|
Bb|-4---4---3---3---1---1---0---0----------------------|
Gb|---0---0---0---0---0---0---0---0--------------------|
Db|----------------------------------------------------|
Ab|----------------------------------------------------|
Db|----------------------------------------------------|

(Parte 2 - 2x)

Eb|----------------------------------------------------|
Bb|-8---8---7---7---10---10---8---8--------------------|
Gb|---0---0---0---0----0----0---0---0------------------|
Db|----------------------------------------------------|
Ab|----------------------------------------------------|
Db|----------------------------------------------------|

Eb|----------------------------------------------------|
Bb|-12---12---10---10---13---13---12---12--------------|
Gb|----0----0----0----0----0----0----0----0------------|
Db|----------------------------------------------------|
Ab|----------------------------------------------------|
Db|----------------------------------------------------|

(Parte 3)

Eb|----------------------------------------------------|
Bb|-15---15---13---13---12---12---10---10--------------|
Gb|----0----0----0----0----0----0----0----0------------|
Db|----------------------------------------------------|
Ab|----------------------------------------------------|
Db|----------------------------------------------------|

Eb|----------------------------------------------------|
Bb|-13---13---12---12---10---10---8---8----------------|
Gb|----0----0----0----0----0----0---0---0--------------|
Db|----------------------------------------------------|
Ab|----------------------------------------------------|
Db|----------------------------------------------------|

Eb|----------------------------------------------------|
Bb|-11---11---10---10---8---8---7---7------------------|
Gb|----0----0----0----0---0---0---0---0----------------|
Db|----------------------------------------------------|
Ab|----------------------------------------------------|
Db|----------------------------------------------------|


Primeira Estrofe:

G5 ( D5 D5+ D5 )
Why don't you ask the
G5 ( D5 D5+ )
Kids at tiananmen square
G5 ( D5 D5+ D5 )
Was fashion the reason
G5 ( D5 D5+ )
Why they were there?
G5 ( D5 D5+ D5 )
They disguise it
G5 ( D5 D5+ )
Hypnotize it
G5 ( D5 D5+ D5 )
Television
G5 ( D5 D5+ )
Made you buy it
(Riff 1)
I'm just sitting in my car and waiting for my

Riff 1:

Eb|----------------------------------------------------|
Bb|-15---15---13---13---12---12---10---10--------------|
Gb|----0----0----0----0----0----0----0----0------------|
Db|----------------------------------------------------|
Ab|----------------------------------------------------|
Db|----------------------------------------------------|

Eb|----------------------------------------------------|
Bb|-13---13---12---12---10---10---8---8----------------|
Gb|----0----0----0----0----0----0---0---0--------------|
Db|----------------------------------------------------|
Ab|----------------------------------------------------|
Db|----------------------------------------------------|

Eb|----------------------------------------------------|
Bb|-11---11---10---10---8---8---7---7------------------|
Gb|----0----0----0----0---0---0---0---0----------------|
Db|----------------------------------------------------|
Ab|----------------------------------------------------|
Db|----------------------------------------------------|


Segunda Estrofe:

G5 ( D5 D5+ D5 )
She's scared that I will
G5 ( D5 D5+ )
Take her away from there
G5 ( D5 D5+ D5 )
Dreams and her country
G5 ( D5 D5+ )
Left with no one there
G5 ( D5 D5+ D5 )
Mesmerize the
G5 ( D5 D5+ )
Simple minded
G5 ( D5 D5+ D5 )
Propaganda
G5 ( D5 D5+ )
Leaves us blinded
(Riff 1)
I'm just sitting in my car and
G5 ( D5 D5+ D5 )
Waiting for my girl

G5 ( D5 D5+ D5 )


Primeiro Refrão:

G5 Eb5- Eb5 F5 Bb5 D5
I'm just sitting in my car and waiting for my girl


Solo:

(Base)
G5 D5 F5 G5 D5 F5 G5 D5 F5
Eb|------------------------------------------|
Bb|------------------------------------------|
Gb|------------------------------------------|
Db|------------------------------------------|
Ab|-5---0---3---5---0---3---5---0---3--------|
Db|-5---0---3---5---0---3---5---0---3--------|

(Guitarra 1)

Eb|-18-18-18-----18-18-18------18-18-18-------------|
Bb|-20-20-20-----18-18-18------20-20-20-------------|
Gb|----------------------------------------------------|
Db|----------------------------------------------------|
Ab|----------------------------------------------------|
Db|----------------------------------------------------|

(Guitarra 2 - Partes 1 e 2 da Introdução)

(Guitarra 3 - Dobra)

Eb|----------------------------------------------------|
Bb|----------12~---12-13-15-13-12-13-12h13p12----12----|
Gb|-12~--14-----------------------------------14----14-|
Db|----------------------------------------------------|
Ab|----------------------------------------------------|
Db|----------------------------------------------------|

Eb|----------------------------------------------------|
Bb|-------12-13-12h13p12----12-------------------------|
Gb|-12-14----------------14----14----------------------|
Db|----------------------------------------------------|
Ab|----------------------------------------------------|
Db|----------------------------------------------------|

Eb|----------------------------------------------------|
Bb|----------12~---12-13-15-13-12-13-12h13p12----12----|
Gb|-12~--14-----------------------------------14----14-|
Db|----------------------------------------------------|
Ab|----------------------------------------------------|
Db|----------------------------------------------------|

Eb|----------------------------------------------------|
Bb|-------12-13-12h13p12----12-13----------------------|
Gb|-12-14----------------14----------------------------|
Db|----------------------------------------------------|
Ab|----------------------------------------------------|
Db|----------------------------------------------------|

Eb|----------------------------------------------------|
Bb|-15----15-15-15----15-15-15----15-15----------------|
Gb|----------------------------------------------------| (Até o final do solo)
Db|----------------------------------------------------|
Ab|----------------------------------------------------|
Db|----------------------------------------------------|

(Guitarra 4 - Dobra)

Eb|----------------------------------------------------|
Bb|----------------15-16-18-16-15-16-15h16p15----15----|
Gb|-------------------------------------------17----17-|
Db|----------------------------------------------------|
Ab|----------------------------------------------------|
Db|----------------------------------------------------|

Eb|----------------------------------------------------|
Bb|-------15-16-15h16p15----15-------------------------|
Gb|-16-17----------------17----17----------------------|
Db|----------------------------------------------------|
Ab|----------------------------------------------------|
Db|----------------------------------------------------|

Eb|----------------------------------------------------|
Bb|----------15~---15-16-18-16-15-16-15h16p15----15----|
Gb|-16~--17-----------------------------------17----17-|
Db|----------------------------------------------------|
Ab|----------------------------------------------------|
Db|----------------------------------------------------|

Eb|----------------------------------------------------|
Bb|-------15-16-15h16p15----15-------------------------|
Gb|-16-17----------------17----17----------------------|
Db|----------------------------------------------------|
Ab|----------------------------------------------------|
Db|----------------------------------------------------|

Eb|----------------------------------------------------|
Bb|----------------------------------------------------|
Gb|-16----16----16---16--------------------------------| (Até o final do solo)
Db|----------------------------------------------------|
Ab|----------------------------------------------------|
Db|----------------------------------------------------|


Segundo Refrão:

G5 Eb5- Eb5 F5 Bb5 D5
I'm just sitting in my car and waiting for my girl

G5 Eb5- Eb5 F5 Bb5 D5
I'm just sitting in my car and waiting for my girl

(Riff Final)
Girl

Riff Final:

Eb|----------------------------------------------------|
Bb|-1---1---3---3---3---3---3---3----------------------|
Gb|---0---0---0---0---0---0---0---0--------------------|
Db|----------------------------------------------------|
Ab|----------------------------------------------------|
Db|----------------------------------------------------|

Eb|----------------------------------------------------|
Bb|-4---4---3---3---1---1h3p1p0--0---------------------|
Gb|---0---0---0---0---0----------0---------------------|
Db|----------------------------------------------------|
Ab|----------------------------------------------------|
Db|----------------------------------------------------|

ACORDES PARA GUITARRA

PIANO UKELELE
G5
D5
D7b13
Eb5
F5
Bb5


COMENTARIOS

Aún no hay comentarios,

¡escribe el primero!

Escribe una pregunta, duda o comentario sobre esta canción, te responderemos a la brevedad.

Las más tocadas de System of a Down

Toca una Canción al Azar de System of a Down
G5
D5
D7b13
Eb5
F5
Bb5