Boom
System of a Down
Acordes

Subida por anobahidalgo
Álbum: Steal This Album! ( 2002)


Más Versiones
Ver. 2 Ver. 3 Ver. 4 Ver. 5 Ver. 6

Cambiar Cifrado
Americano Latino

Cambiar Tonalidad
-1 +1

Partir Pantalla Imprimir FAQ

+A
-A


Ver solo la LETRA
Riff 1: (normal)

E|-----------------------------------------------------------------------
B|-----------------------------------------------------------------------
G|-----------------------------------------------------------------------
D|-----------------------------------------------------------------------
A|-3-3-2-2--3-3-2-2--3-3-2-2--3-3-2-2---3-3-2-2--3-3-2-2--3-3-2-2--3-3-2-
E|-----------------------------------------------------------------------
(entra baixo)
Riff 2: (rápido)

I've been walking through your streets,
Where all your money's earning,
Where all your building's crying
And clueless neckties working,
Revolving fake lawn houses,
Housing all your fears,
Desensitized by TV,

E|-----------------------------------------------------------------------
B|-----------------------------------------------------------------------
G|-----------------------------------------------------------------------
D|---------5-----------------5-------------------4----------------4------
A|-3-5-6-3---6-5-6---3-5-6-3---6-5-6-----2-4-5-2---5-4-5--2-4-5-2---5-4-5
E|-----------------------------------------------------------------------

Overbearing advertising,
God of consumerism,
And all your crooked pictures
Looking good, mirrorism,
Filtering information,
For the public eye,
Designed for profiteering,
Your neighbor, what a guy.

E|-----------------------------------------------------------------------
B|-----------------------------------------------------------------------
G|-----------------------------------------------------------------------
D|---------8-----------------8------------------5-----------------5------
A|-5-7-8-5---8-7-8---5-7-8-5---8-7-8----3-5-6-3---6-5-6---3-5-6-3---6-5-6
E|-----------------------------------------------------------------------


se preferirem tocar sem o 4º dedo ( dedinho) fica a mesma coisa, opção de vocês...
então ao invés de ficar assim:
--5--
--5--
--3--
ficaria assim :

-----
--5--
--3--


chorus:

BOOM, BOOM, BOOM, BOOM,
Every time you drop the bomb,
You kill the god your child has born,


E|-----------------------------------------------------------------------
B|-----------------------------------------------------------------------
G|----5------5------5------5---------------------------------------------
D|----5-xxxx-5-xxxx-5-xxxx-5-xxxx----------------------------------------
A|----3-xxxx-3-xxxx-3-xxxx-3-xxxx----------------------------------------
E|-----------------------------------------------------------------------

E|-----------------------------------------------------------------------
B|-----------------------------------------------------------------------
G|---5-5---4-4---5-5---4-4---5-5---4-4---5-5---4-4-----------------------
D|---5-5---4-4---5-5---4-4---5-5---4-4---5-5---4-4-----------------------
A|---3-3---2-2---3-3---2-2---4-4---2-2---3-3---2-2-----------------------
E|-----------------------------------------------------------------------

BOOM, BOOM, BOOM, BOOM

E|-----------------------------------------------------------------------
B|-----------------------------------------------------------------------
G|----5------5------5------5--------------------------------------------
D|----5-xxxx-5-xxxx-5-xxxx-5-xxxx----------------------------------------
A|----3-xxxx-3-xxxx-3-xxxx-3-xxxx----------------------------------------
E|-----------------------------------------------------------------------


Riff 2: (rápido)

Modern globalization,
Coupled with condemnations,
Unnecessary death,
Matador corporations,
Puppeting your frustrations,
With the blinded flag,
Manufacturing consent,

E|-----------------------------------------------------------------------
B|-----------------------------------------------------------------------
G|-----------------------------------------------------------------------
D|---------5-----------------5-------------------4----------------4------
A|-3-5-6-3---6-5-6---3-5-6-3---6-5-6-----2-4-5-2---5-4-5--2-4-5-2---5-4-5
E|-----------------------------------------------------------------------

Is the name of the game,
The bottom line is money,
Nobody gives a fuck.
4000 hungry children leave us per hour,
From starvation,
While billions are spent on bombs,
Creating death showers.

E|-----------------------------------------------------------------------
B|-----------------------------------------------------------------------
G|-----------------------------------------------------------------------
D|---------8-----------------8------------------5-----------------5------
A|-5-7-8-5---8-7-8---5-7-8-5---8-7-8----3-5-6-3---6-5-6---3-5-6-3---6-5-6
E|-----------------------------------------------------------------------



chorus:

BOOM, BOOM, BOOM, BOOM,
Every time you drop the bomb,
You kill the god your child has born,

E|-----------------------------------------------------------------------
B|-----------------------------------------------------------------------
G|----5------5------5------5---------------------------------------------
D|----5-xxxx-5-xxxx-5-xxxx-5-xxxx----------------------------------------
A|----3-xxxx-3-xxxx-3-xxxx-3-xxxx----------------------------------------
E|-----------------------------------------------------------------------

E|-----------------------------------------------------------------------
B|-----------------------------------------------------------------------
G|---5-5---4-4---5-5---4-4---5-5---4-4---5-5---4-4-----------------------
D|---5-5---4-4---5-5---4-4---5-5---4-4---5-5---4-4-----------------------
A|---3-3---2-2---3-3---2-2---4-4---2-2---3-3---2-2-----------------------
E|-----------------------------------------------------------------------

BOOM, BOOM, BOOM, BOOM

E|-----------------------------------------------------------------------
B|-----------------------------------------------------------------------
G|----5------5------5------5---------------------------------------------
D|----5-xxxx-5-xxxx-5-xxxx-5-xxxx----------------------------------------
A|----3-xxxx-3-xxxx-3-xxxx-3-xxxx----------------------------------------
E|-----------------------------------------------------------------------

BOOM! [x7]

E|-----------------------------------------------------------------------
B|-----------------------------------------------------------------------
G|---5-5-5-5-5-5-5-------------------------------------------------------
D|---5-5-5-5-5-5-5-------------------------------------------------------
A|---3-3-3-3-3-3-3-------------------------------------------------------
E|-----------------------------------------------------------------------

Rif 4 :
E|----------------------------------------------------------------------
B|----------------------------------------------------------------------
G|----5-----------------------------------------------------------------
D|----5--5--4----5--7--8----5--4----------------------------------------
A|----3--5--4----5--7--8----5--4----------------------------------------
E|-------3--2----3--5--6----3--2----------------------------------------

Why must we kill Our own kind...

E|----------------------------------------------------------------------
B|----------------------------------------------------------------------
G|----5-----------------------------------------------------------------
D|----5--5--4----5--7--8----5--4----------------------------------------
A|----3--5--4----5--7--8----5--4----------------------------------------
E|-------3--2----3--5--6----3--2----------------------------------------

Chorus:

BOOM, BOOM, BOOM, BOOM,
Every time you drop the bomb,
You kill the god your child has born,


E|-----------------------------------------------------------------------
B|-----------------------------------------------------------------------
G|----5------5------5------5---------------------------------------------
D|----5-xxxx-5-xxxx-5-xxxx-5-xxxx----------------------------------------
A|----3-xxxx-3-xxxx-3-xxxx-3-xxxx----------------------------------------
E|-----------------------------------------------------------------------

E|-----------------------------------------------------------------------
B|-----------------------------------------------------------------------
G|---5-5---4-4---5-5---4-4---5-5---4-4---5-5---4-4-----------------------
D|---5-5---4-4---5-5---4-4---5-5---4-4---5-5---4-4-----------------------
A|---3-3---2-2---3-3---2-2---4-4---2-2---3-3---2-2-----------------------
E|-----------------------------------------------------------------------

BOOM, BOOM, BOOM, BOOM

E|-----------------------------------------------------------------------
B|-----------------------------------------------------------------------
G|----5------5------5------5---------------------------------------------
D|----5-xxxx-5-xxxx-5-xxxx-5-xxxx----------------------------------------
A|----3-xxxx-3-xxxx-3-xxxx-3-xxxx----------------------------------------
E|-----------------------------------------------------------------------

BOOM [x8]

E|-----------------------------------------------------------------------
B|-----------------------------------------------------------------------
G|---5-5-5-5-5-5-5-5-----------------------------------------------------
D|---5-5-5-5-5-5-5-5-----------------------------------------------------
A|---3-3-3-3-3-3-3-3-----------------------------------------------------
E|-----------------------------------------------------------------------

Every time you drop the bomb.

E|-----------------------------------------------------------------------
B|-----------------------------------------------------------------------
G|---5-5---4-4---5-5---4-4-----------------------------------------------
D|---5-5---4-4---5-5---4-4-----------------------------------------------
A|---3-3---2-2---3-3---2-2-----------------------------------------------
E|-----------------------------------------------------------------------

ACORDES PARA GUITARRA

PIANO UKELELE


COMENTARIOS

Aún no hay comentarios,

¡escribe el primero!

Escribe una pregunta, duda o comentario sobre esta canción, te responderemos a la brevedad.

Las más tocadas de System of a Down

Toca una Canción al Azar de System of a Down