Bounce
System of a Down
Acordes

Subida por BISMARCKR21
Álbum: Toxicity ( 2001)


Más Versiones
Ver. 2 Ver. 3 Ver. 4 Ver. 5 Ver. 6

Cambiar Cifrado
Americano Latino

Cambiar Tonalidad
-1 +1

Partir Pantalla Imprimir FAQ

+A
-A
D|-----------------------------------|
A|-----------------------------------|
F|-----------------------------------| (4x)
C|-----8--7-7-8-8-7-7-8-8-7-7-8-8--0-|
G|-----8--7-7-8-8-7-7-8-8-7-7-8-8--0-|
C|-----8--7-7-8-8-7-7-8-8-7-7-8-8--0-|

D|-------------------------------------------------|
A|-------------------------------------------------|
F|-------------------------------------------------| (2x)
C|---7-8---7-8---7-8---7-8---6-7---6-7---6-7---6-7-|
G|-5-----5-----5-----5-----4-----4-----4-----4-----|
C|-------------------------------------------------|

D|-----------------------------------|
A|-----------------------------------|
F|-----------------------------------| (4x)
C|-----8--7-7-8-8-7-7-8-8-7-7-8-8--0-|
G|-----8--7-7-8-8-7-7-8-8-7-7-8-8--0-|
C|-----8--7-7-8-8-7-7-8-8-7-7-8-8--0-|

D|---------------------------------------------------------|
A|---------------------------------------------------------|
F|---------------------------------------------------------| (2x)
C|----9-10---9-10---9-10---9-10-----9-8---9-8---9-8---9-8--|
G|--7------7------7------7--------6-----6-----6-----6------|
C|---------------------------------------------------------|

D|-----------------------------------|
A|-----------------------------------|
F|-----------------------------------| (4x)
C|-----8--7-7-8-8-7-7-8-8-7-7-8-8--0-|
G|-----8--7-7-8-8-7-7-8-8-7-7-8-8--0-|
C|-----8--7-7-8-8-7-7-8-8-7-7-8-8--0-|

D|---------------------------------------|
A|---------------------------------------|
F|-----10---10---10---10---9---9---9---9-| (2x)
C|---8----8----8----8----8---8---8---8---|
G|---------------------------------------|
C|---------------------------------------|

D|---------------------------------------------------------|
A|---------------------------------------------------------|
F|---------------------------------------------------------|
C|--8-8-0--8-8-0--8-8-0--8-8-0--8-8-0--8-8-0--8-8-0--8-8-0-|
G|--8-8-0--8-8-0--8-8-0--8-8-0--8-8-0--8-8-0--8-8-0--8-8-0-|
C|--8-8-0--8-8-0--8-8-0--8-8-0--8-8-0--8-8-0--8-8-0--8-8-0-|

D|--------------------------------------------------------------------|
A|--x-x------x-x------x-x-----x-x------x-x-----x-x-----x-x-----x-x----|
F|--x-x--10--x-x--10--x-x--10-x-x--10--x-x--9--x-x--9--x-x--9--x-x--9-|
C|--x-x--8---x-x--8---x-x--8--x-x--8---x-x--8--x-x--8--x-x--8--x-x--8-|
G|--------------------------------------------------------------------|
C|--------------------------------------------------------------------|

D|--------------------------------------------------------|
A|--------------------------------------------------------|
F|--------------------------------------------------------|
C|--------------------------------------------------------|
G|-------0-----0-----0-----0-------5-----5-----5-----5----|
C|---8-8---8-8---8-8---8-8-----8-7---8-7---8-7---8-7------|

D|-----------------------------------|
A|-----------------------------------|
F|-----------------------------------| (4x)
C|-----8--7-7-8-8-7-7-8-8-7-7-8-8--0-|
G|-----8--7-7-8-8-7-7-8-8-7-7-8-8--0-|
C|-----8--7-7-8-8-7-7-8-8-7-7-8-8--0-|

Jump, Bounce, Down, Up

I went out on a date,
With a girl, a bit late,
She had so many friends,
Gliding through many hands.
I brought my pogo stick,
Just to show her a trick,
She had so many friends,
Gliding through many hands.

Jump Pogo?..
Bounce Pogo,
Down Pogo, Up Pogo

Unannounced twister games,
All players with no names,
They lined up double quick,
But just one pogo stick,
Everyone gets to play,
Runaway, expose',
It was so exotic,
But just one pogo stick.

Jump Pogo?..
Bounce Pogo,
Down Pogo, Up Pogo

Oh, I like to spread you out,
Touching whoever's behind

Jump Pogo?..
Bounce Pogo,
Down Pogo, Up Pogo

ACORDES PARA GUITARRA

PIANO UKELELE


COMENTARIOS

Aún no hay comentarios,

¡escribe el primero!

Escribe una pregunta, duda o comentario sobre esta canción, te responderemos a la brevedad.

Las más tocadas de System of a Down

Toca una Canción al Azar de System of a Down