Cigaro
System of a Down
Acordes

Subida por Sweetcrazy
Álbum: Mezmerize ( 2005)


Más Versiones
Ver. 2 Ver. 3 Ver. 4 Ver. 5 Ver. 6

Cambiar Cifrado
Americano Latino

Cambiar Tonalidad
-1 +1

Partir Pantalla Imprimir FAQ

+A
-A


Ver solo la LETRA
Afinação: Drop C# (C# G# C# F# A# D#)

Intro 2x:

Eb|-------------------------------------------------|
Bb|-------------------------------------------------|
Gb|-------------------------------------------------|
Db|-0-0-1p0-0-0-1p0-0-0-1p0-0-0-1p0-0-0-1p0-0-0-1p0-|
Ab|-0-0-1p0-0-0-1p0-0-0-1p0-0-0-1p0-0-0-1p0-0-0-1p0-|
Db|-0-0-1p0-0-0-1p0-0-0-1p0-0-0-1p0-0-0-1p0-0-0-1p0-|
* * * * * * * * * * * *
Eb|-------------------|
Bb|-------------------|
Gb|-------------------|
Db|-------------------|
Ab|-6-5-3-5-3-1-3-1---|
Db|-------------------|

Intro (final 2x):

Eb|-------------------------------------------------|
Bb|-------------------------------------------------|
Gb|-------------------------------------------------|
Db|-1p0-1p0-1p0-1p0-1p0-1p0-1p0-1p0-1p0-1p0-1p0-1p0-|
Ab|-1p0-1p0-1p0-1p0-1p0-1p0-1p0-1p0-1p0-1p0-1p0-1p0-|
Db|-1p0-1p0-1p0-1p0-1p0-1p0-1p0-1p0-1p0-1p0-1p0-1p0-|
* * * * * * * * * * * * * * * * * * * * * * * *
Eb|-------------------|
Bb|-------------------|
Gb|-------------------|
Db|-------------------|
Ab|-6-5-3-5-3-1-3-1---|
Db|-------------------|

Verso 2x:

"My cock is much..."
Eb|-------------------------------------------------|
Bb|-------------------------------------------------|
Gb|-------------------------------------------------|
Db|-7-7-7~------------------------------------------|
Ab|-7-7-7~------------------------------------------|
Db|-5-5-5~------------------------------------------|
* * *
"My cock can..."
Eb|----------------------------------------------|
Bb|----------------------------------------------|
Gb|---------------------------------7-7-7--------|
Db|10-9-10-9---7-6-7-6----3-2--3-2?-7-7-7--------|
Ab|-8/7--8/7---5/4-5/4----1/0--1/0--5-5-5--------|
Db|----------------------------------------------|

Refrão 2x:

"Cool, in denial..."
Eb|-------------------------------------------------|
Bb|-------------------------------------------------|
Gb|-------------------------------------------------|
Db|-0-0-1p0-0-0-1p0-0-0-1p0-0-0-1p0-0-0-1p0-0-0-1p0-|
Ab|-0-0-1p0-0-0-1p0-0-0-1p0-0-0-1p0-0-0-1p0-0-0-1p0-|
Db|-0-0-1p0-0-0-1p0-0-0-1p0-0-0-1p0-0-0-1p0-0-0-1p0-|
* * * * * * * * * * * *
"...cigaro, cigaro, cigaro"
Eb|-------------------|
Bb|-------------------|
Gb|-------------------|
Db|-------------------|
Ab|-6-5-3-5-3-1-3-1---|
Db|-------------------|

Verso 2x:

"My shit stinks..."
Eb|-------------------------------------------------|
Bb|-------------------------------------------------|
Gb|-------------------------------------------------|
Db|-7-7-7~------------------------------------------|
Ab|-7-7-7~------------------------------------------|
Db|-5-5-5~------------------------------------------|
* * *
"My shis..."
Eb|----------------------------------------------|
Bb|----------------------------------------------|
Gb|---------------------------------7-7-7--------|
Db|10-9-10-9---7-6-7-6----3-2--3-2?-7-7-7--------|
Ab|-8/7--8/7---5/4-5/4----1/0--1/0--5-5-5--------|
Db|----------------------------------------------|

Refrão 2x:

"Cool, in denial..."
Eb|-------------------------------------------------|
Bb|-------------------------------------------------|
Gb|-------------------------------------------------|
Db|-0-0-1p0-0-0-1p0-0-0-1p0-0-0-1p0-0-0-1p0-0-0-1p0-|
Ab|-0-0-1p0-0-0-1p0-0-0-1p0-0-0-1p0-0-0-1p0-0-0-1p0-|
Db|-0-0-1p0-0-0-1p0-0-0-1p0-0-0-1p0-0-0-1p0-0-0-1p0-|
* * * * * * * * * * * *
"...cigaro, cigaro, cigaro"
Eb|-------------------|
Bb|-------------------|
Gb|-------------------|
Db|-------------------|
Ab|-6-5-3-5-3-1-3-1---|
Db|-------------------|

Ponte 2x:

Eb|-------------------------------------------------|
Bb|-------------------------------------------------|
Gb|-------------------------------------------------|
Db|-1p0-1p0-1p0-1p0-1p0-1p0-1p0-1p0-1p0-1p0-1p0-1p0-|
Ab|-1p0-1p0-1p0-1p0-1p0-1p0-1p0-1p0-1p0-1p0-1p0-1p0-|
Db|-1p0-1p0-1p0-1p0-1p0-1p0-1p0-1p0-1p0-1p0-1p0-1p0-|
* * * * * * * * * * * * * * * * * * * * * * * *
Eb|-------------------|
Bb|-------------------|
Gb|-------------------|
Db|-------------------|
Ab|-6-5-3-5-3-1-3-1---|
Db|-------------------|

Ponte pt 2 - 3x:

"Can't you see that..."
Eb|--------------------------------------------------------------|
Bb|-----3-----3-----3-----3--6565--------------------------------|
Gb|-----2-----2-----2-----2-------7676---------------------------|
Db|-0-0---0-0---0-0---0-0--------------8787-5-5------------------|
Ab|-0-0---0-0---0-0---0-0--------------------4-4-----------------|
Db|-0-0---0-0---0-0---0-0----------------------------------------|
* * * * * * * *

Ponte Pt 3 - 3x:

Eb|-------------------------------------------------------|
Bb|-6565--------------------------------------------------|
Gb|-----7676----------------------------------------------|
Db|---------8787-5-5--------------------------------------|
Ab|---------------4-4-------------------------------------|
Db|-------------------------------------------------------|

Ponte parte 4 (3x):
"We´re the regulators..."
Eb|-------------------------------------------------------|
Bb|-------------------------------------------------------|
Gb|-------------------------------------------------------|
Db|---------------------------------------------6~--------|
Ab|-8787-10-9-10-9--5454-6565-1-0-1-0-1-0-1-0?5~----------|
Db|-------------------------------------------------------|

Refrão 2x:

"Cool, in denial..."
Eb|-------------------------------------------------|
Bb|-------------------------------------------------|
Gb|-------------------------------------------------|
Db|-0-0-1p0-0-0-1p0-0-0-1p0-0-0-1p0-0-0-1p0-0-0-1p0-|
Ab|-0-0-1p0-0-0-1p0-0-0-1p0-0-0-1p0-0-0-1p0-0-0-1p0-|
Db|-0-0-1p0-0-0-1p0-0-0-1p0-0-0-1p0-0-0-1p0-0-0-1p0-|
* * * * * * * * * * * *
"...cigaro, cigaro, cigaro"
Eb|-------------------|
Bb|-------------------|
Gb|-------------------|
Db|-------------------|
Ab|-6-5-3-5-3-1-3-1---|
Db|-------------------|

Ponte pt 4 - 3x:

"We´re the regulators..."
Eb|-------------------------------------------------------|
Bb|-------------------------------------------------------|
Gb|-------------------------------------------------------|
Db|---------------------------------------------6~--------|
Ab|-8787-10-9-10-9--5454-6565-1-0-1-0-1-0-1-0?5~----------|
Db|-------------------------------------------------------|

Refrão 2x:

"Cool, in denial..."
Eb|-------------------------------------------------|
Bb|-------------------------------------------------|
Gb|-------------------------------------------------|
Db|-0-0-1p0-0-0-1p0-0-0-1p0-0-0-1p0-0-0-1p0-0-0-1p0-|
Ab|-0-0-1p0-0-0-1p0-0-0-1p0-0-0-1p0-0-0-1p0-0-0-1p0-|
Db|-0-0-1p0-0-0-1p0-0-0-1p0-0-0-1p0-0-0-1p0-0-0-1p0-|
* * * * * * * * * * * *
"...cigaro, cigaro, cigaro"
Eb|-------------------|
Bb|-------------------|
Gb|-------------------|
Db|-------------------|
Ab|-6-5-3-5-3-1-3-1---|
Db|-------------------|

Final: Palm Mute nas cordas soltas, acompanhando o ritmo

ACORDES PARA GUITARRA

PIANO UKELELE


COMENTARIOS

Aún no hay comentarios,

¡escribe el primero!

Escribe una pregunta, duda o comentario sobre esta canción, te responderemos a la brevedad.

Las más tocadas de System of a Down

Toca una Canción al Azar de System of a Down