Highway Song
System of a Down
Acordes

Subida por elkrak
Álbum: Steal This Album! ( 2002)


Más Versiones
Ver. 2 Ver. 3 Ver. 4 Ver. 5 Ver. 6

Cambiar Cifrado
Americano Latino

Cambiar Tonalidad
-1 +1

Partir Pantalla Imprimir FAQ

+A
-A


D||----------------------|----------------------|----------------------|
A||----------------------|----------------------|----------------------|
F||----------------------|----------------------|----------------------|
C||--0--0------0--0------|--0--0------0--0------|--0--0------0--0------|
G||--0--0------0--0------|--0--0------0--0------|--0--0------0--0------|
C||--0--0------0--0------|--0--0------0--0------|--0--0------0--0------|



----------------------|--------------------------|-------------------------|
----------------------|--------------------------|-------------------------|
----------------------|--------------------------|-------------------------|
--0--0------0--0------|--0--0--7--7/-0--0--7--0--|--0--0--7--7/-0--0--7/---|
--0--0------0--0------|--0--0--7--7/-0--0--7--0--|--0--0--7--7/-0--0--7/---|
--0--0------0--0------|--0--0--7--7/-0--0--7--0--|--0--0--7--7/-0--0--7/---|



--------------------------|-------------------------|--------------------------|
--------------------------|-------------------------|--------------------------|
--------------------------|-------------------------|--------------------------|
--0--0--7--7/-0--0--7--0--|--0--0--7--7/-0--0--7/---|--0--0--7--7/-0--0--7--0--|
--0--0--7--7/-0--0--7--0--|--0--0--7--7/-0--0--7/---|--0--0--7--7/-0--0--7--0--|
--0--0--7--7/-0--0--7--0--|--0--0--7--7/-0--0--7/---|--0--0--7--7/-0--0--7--0--|



-------------------------|--------------------------|-------------------------|
-------------------------|--------------------------|-------------------------|
-------------------------|--------------------------|-------------------------|
--0--0--7--7/-0--0--7/---|--0--0--7--7/-0--0--7--0--|--0--0--7--7/-0--0--7/---|
--0--0--7--7/-0--0--7/---|--0--0--7--7/-0--0--7--0--|--0--0--7--7/-0--0--7/---|
--0--0--7--7/-0--0--7/---|--0--0--7--7/-0--0--7--0--|--0--0--7--7/-0--0--7/---|

Intro 2º guitar
D||----------------------|----------------------|----------------------|
A||----------------------|----------------------|----------------------|
F||----------------------|----------------------|----------------------|
C||----------------------|----------------------|----------------------|
G||-------|-3-3h5-5-5-6-5--------|----------------------|
C||----------------------|----------------------|----------------------|

Verse

--5----------------|------------------|--4----------------|------------------|
--6----------------|------------------|--5----------------|------------------|
--7----------------|------------------|--6----------------|------------------|
-------------------|------------------|-------------------|------------------|
-------------------|------------------|-------------------|------------------|
-------------------|------------------|-------------------|------------------|



-------------------|------------------|-------------------|------------------|
--2----------------|------------------|--5----------------|------------------|
--2----------------|------------------|--5----------------|------------------|
--2----------------|------------------|--5----------------|------------------|
--0----------------|------------------|--3----------------|------------------|
-------------------|------------------|-------------------|------------------|

-----------------------|------------------------|------------4-----------|
--6------------8-------|--6--------5------------|----5----------5--------|
-----7------------7----|-----7----------6-------|-------6----------6-----|
--------7--------------|--------7----------6----|---------------------6--|
-----------------------|------------------------|------------------------|
-----------------------|------------------------|------------------------|



-------------------|------------------|-------------------|------------------|
--2----------------|------------------|--5----------------|------------------|
--2----------------|------------------|--5----------------|------------------|
--2----------------|------------------|--5----------------|------------------|
--0----------------|------------------|--3----------------|------------------|
-------------------|------------------|-------------------|------------------|



----------------------------|-----------------------------|
----------------------------|-----------------------------|
----------------------------|-----------------------------|
--0--7--8-7-0-0--7--7-8--7--|-----6--7-6------6-6-6-7--6--|
----------------------------|--4---------4-4--------------|
----------------------------|-----------------------------|



-----------------------------|-----------------------------|
-----------------------------|-----------------------------|
-----------------------------|-----------------------------|
-----------------------------|-----5--6-5------5-5-5-6--5--|
--0--7--8-7-0-0--7-7-7-8--7--|--3---------3-3--------------|
-----------------------------|-----------------------------|



----------------------------|-----------------------------|
----------------------------|-----------------------------|
----------------------------|-----------------------------|
--0--7--8-7-0-0--7--7-8--7--|-----6--7-6------6-6-6-7--6--|
----------------------------|--4---------4-4--------------|
----------------------------|-----------------------------|



-----------------------------|----------------------|--5----------------|
-----------------------------|----------------------|--6----------------|
-----------------------------|--5----5----5----5----|--7----------------|
-----------------------------|--5----5----5----5----|-------------------|
--0--7--8-7-0-0--7-7-7-8--7--|--3----3----3----3----|-------------------|
-----------------------------|----------------------|-------------------|



------------------|--4----------------|------------------|-------------------|
------------------|--5----------------|------------------|--2----------------|
------------------|--6----------------|------------------|--2----------------|
------------------|-------------------|------------------|--2----------------|
------------------|-------------------|------------------|--0----------------|
------------------|-------------------|------------------|-------------------|



------------------|-------------------|------------------|
------------------|--5----------------|------------------|
------------------|--5----------------|------------------|
------------------|--5----------------|------------------|
------------------|--3----------------|------------------|
------------------|-------------------|------------------|



-----------------------|------------------------|------------4-----------|
--6------------8-------|--6--------5------------|----5----------5--------|
-----7------------7----|-----7----------6-------|-------6----------6-----|
--------7--------------|--------7----------6----|---------------------6--|
-----------------------|------------------------|------------------------|
-----------------------|------------------------|------------------------|



-------------------|------------------|-------------------|------------------|
--2----------------|------------------|--5----------------|------------------|
--2----------------|------------------|--5----------------|------------------|
--2----------------|------------------|--5----------------|------------------|
--0----------------|------------------|--3----------------|------------------|
-------------------|------------------|-------------------|------------------|



----------------------------|-----------------------------|
----------------------------|-----------------------------|
----------------------------|-----------------------------|
--0--7--8-7-0-0--7--7-8--7--|-----6--7-6------6-6-6-7--6--|
----------------------------|--4---------4-4--------------|
----------------------------|-----------------------------|



-----------------------------|-----------------------------|
-----------------------------|-----------------------------|
-----------------------------|-----------------------------|
-----------------------------|-----5--6-5------5-5-5-6--5--|
--0--7--8-7-0-0--7-7-7-8--7--|--3---------3-3--------------|
-----------------------------|-----------------------------|



----------------------------|-----------------------------|
----------------------------|-----------------------------|
----------------------------|-----------------------------|
--0--7--8-7-0-0--7--7-8--7--|-----6--7-6------6-6-6-7--6--|
----------------------------|--4---------4-4--------------|
----------------------------|-----------------------------|



-----------------------------|----------------------|
-----------------------------|----------------------|
-----------------------------|--5----5----5----5----|
-----------------------------|--5----5----5----5----|
--0--7--8-7-0-0--7-7-7-8--7--|--3----3----3----3----|
-----------------------------|----------------------|



----------------------------|-----------------------------|
----------------------------|-----------------------------|
----------------------------|-----------------------------|
--0--7--8-7-0-0--7--7-8--7--|-----6--7-6------6-6-6-7--6--|
----------------------------|--4---------4-4--------------|
----------------------------|-----------------------------|



-----------------------------|-----------------------------|
-----------------------------|-----------------------------|
-----------------------------|-----------------------------|
-----------------------------|-----5--6-5------5-5-5-6--5--|
--0--7--8-7-0-0--7-7-7-8--7--|--3---------3-3--------------|
-----------------------------|-----------------------------|



----------------------------|-----------------------------|
----------------------------|-----------------------------|
----------------------------|-----------------------------|
--0--7--8-7-0-0--7--7-8--7--|-----6--7-6------6-6-6-7--6--|
----------------------------|--4---------4-4--------------|
----------------------------|-----------------------------|


-----------------------------|----------------------|
-----------------------------|----------------------|
-----------------------------|--5----5----5----5----|
-----------------------------|--5----5----5----5----|
--0--7--8-7-0-0--7-7-7-8--7--|--3----3----3----3----|
-----------------------------|----------------------|

SOLO:

----------------------------------|----------------------------------|
------15--17-------15-----17--15--|------15--17-------15-----17--15--|
--14-----------14-----14----------|--13-----------13-----13----------|
----------------------------------|----------------------------------|
----------------------------------|----------------------------------|
----------------------------------|----------------------------------|



----------------------------------|----------------------------------|
------18--17-------18-----18--17--|------18--17-------18-----18--17--|
--15-----------15-----15----------|--14-----------14-----14----------|
----------------------------------|----------------------------------|
----------------------------------|----------------------------------|
----------------------------------|----------------------------------|



----------------------------------|----------------------------------|
------15--17-------15-----17--15--|------15--17-------15-----17--15--|
--14-----------14-----14----------|--13-----------13-----13----------|
----------------------------------|----------------------------------|
----------------------------------|----------------------------------|
----------------------------------|----------------------------------|



----------------------------------|----------------------------------|
------18--17-------18-----18--17--|------18--17-------18-----18--17--|
--15-----------15-----15----------|--14-----------14-----14----------|
----------------------------------|----------------------------------|
----------------------------------|----------------------------------|
----------------------------------|----------------------------------| _______________________________________________________





A afinação da guitarra nessa música é em Dó maior, veja:

1ª corda = D
2ª corda = A
3ª corda = F
4ª corda = C
5ª corda = G
6ª corda = C

|----------------|
|----------------|
|----------------| Riff 1
|77--77--77--77--|
|77--77--77--77--|
|77--77--77--77--|

|----------------|
|----------------|
|----------------| Riff 2
|0232023202320232|
|0232023202320232|
|0232023202320232|

|----------|
|----------|
|--777--777| Riff 3
|00---00---|
|00---00---|
|00---00---|


Base I:

G F# D F
|------------------|
|-10---9---5---8---|
|-9----8---4---7---| As notas da 2ª corda são opcionais mas conferem maior sonoridade.
|-7----6---2---5---| Toque cada acorde só uma vez por tempo da música.
|------------------|
|------------------|

|1--3--1--0--------------------------|
|-3--3--3--3---5--8--2----5--------8-|
|--2--2--2--201-4--7--1---4--------7-| Riff 4
|----------------4--7--2-22--------5-|
|------------------------------------|
|------------------------------------|

|--------------------------------------------|
|--------------------------------------------|
|--------------------------------------------| Riff 5
|77877777787667666666762232222223255655555565|
|77877777787667666666762232222223255655555565|
|77877777787667666666762232222223255655555565|

|--------------------------------------------|
|--------------------------------------------|
|--------------------------------------------| Riff 6
|7787777778766766666676223222222325--5--5--5-|
|7787777778766766666676223222222325--5--5--5-|
|7787777778766766666676223222222325--5--5--5-|

|--10-12--10--12-10-10-12-10-12-10--13-12--13--13-12--13-12--13--13-12|
|10-----10--10-----9-----9--9-----11-----11--11-----10-----10--10-----|
|---------------------------------------------------------------------| Riff 7
|---------------------------------------------------------------------|
|---------------------------------------------------------------------|
|---------------------------------------------------------------------|


Base II:

G F# D F
|----------|
|----------|
|----------| Para dar mais peso, toque essa base abafada.
|7--6--2--5| Toque cada um desses acordes apenas uma vez por tempo da música.
|7--6--2--5|
|7--6--2--5|


xxxx
|------|
|------|
|------| Riff 8
|0-0000|
|0-0000| Toque as notas sob o "x" abafadas.
|0-0000|

|--------|
|--------|
|--777--7| Riff 9
|00---00-|
|00---00-|
|00---00-|



Ordem da música:


Riff 1 2x
Riff 2 2x
Riff 3 4x
Base I
Riff 4
Riff 5
Riff 6
Base I
Riff 4
Riff 5
Riff 6
Riff 5
Riff 6
Riff 7 2x
Riff 1
Riff 2 2x
Base II 2x
Riff 8 12x
Riff 7 4x
Riff 3 3x
Riff 9


Letra:


I need, I feel, a love,
You love to love the fear,
I never want to be alone,
I've forgotten to.

The road keeps moving clouds,
The clouds become unreal,
I guess I'll always be at home,
Do you want me to try,
Directing your night.

An exit lights the sky,
The sky becomes complete.
Traveling hearts divide the throne,
I've forgotten to.

Friction, lines, bumps,
The highway song complete,
The signs are all turning right,
Do you want me to try,
Directing your light,
Want me to try,
Directing your light.

The purest forms of life,
Our days are never coming back,
The cannons of our time,
Our days are never coming back,
The purest forms of life,
Our days are never coming back,
The cannons of our time,
Our days are never ever coming back.

Our days are never coming back,
Our days are never coming back,
Our days are never coming back.

ACORDES PARA GUITARRA

PIANO UKELELE
G
F#
D
F


COMENTARIOS

Aún no hay comentarios,

¡escribe el primero!

Escribe una pregunta, duda o comentario sobre esta canción, te responderemos a la brevedad.

Las más tocadas de System of a Down

Toca una Canción al Azar de System of a Down
G
F#
D
F