Jet Pilot
System of a Down
Acordes

Subida por Lantigua
Álbum: Toxicity ( 2001)


Más Versiones
Ver. 2 Ver. 3 Ver. 4 Ver. 5 Ver. 6

Cambiar Cifrado
Americano Latino

Cambiar Tonalidad
-1 +1

Partir Pantalla Imprimir FAQ

+A
-A
Afinação(C,G,C,F,A,D)Verso:1
D|---------------------------------|
A|---------------------------------|
F|---------------8----------------8|
C|0-0-0-/6-0-0-0-8-0-0-0-/6-0-0-0-8|
G|0-0-0-/6-0-0-0-6-0-0-0-/6-0-0-0-6| 4x
C|0-0-0-/6-0-0-0---0-0-0-/6-0-0-0--|

(abafado)Verso:2
D|---------------------------------|
A|---------------------------------|
F|---------------8----------------8|
C|0-0-0-/6-0-0-0-8-0-0-0-/6-0-0-0-8|
G|0-0-0-/6-0-0-0-6-0-0-0-/6-0-0-0-6| 4x
C|0-0-0-/6-0-0-0---0-0-0-/6-0-0-0--|

Verso:3
D|-------------------|
A|-------------------|
F|-------------------|
C|-------------------|
G|0-8-7-5-7-5h7p5-3-1|
C|-------------------|

Verso:4
D|-------------------------|-----------------------------|---|
A|-------------------------|-----------------------------|---|
F|--------------4x---------|----3x-----------------------|---|
C|-------------------------|-----------------------------|-7-|
G|-------------------------|-7-8-7-8-7-555-7-8-7-8-7-555-|-7-|
C|7-8-7-8-7--5-7-8-7-8-7--5|-7-8-7-8-7-555-7-8-7-8-7-555-|-7-|
Repete Verso:1
Repete Verso:3
Repete Verso:4
Repete Verso:1
Repete Verso:3 3x

<------som-limpo---------> <-----distorçao----->
D|-----------------------------------------------------|
A|-----------------------------------------------------|
F|-----------------------9-7--10-9-------9-------------|
C|------7-8-7-10-8-12-10-----------12-10---12-10-8-----|
G|0-7-8------------------------------------------------|
C|-----------------------------------------------------|
Repete Verso:1

Jet Pilot

Wired were the eyes of a horse on a jet pilot,
One that smiled when he flew over the bay,
Wired were the eyes of a horse on a jet pilot,
One that smiled when he flew over the bay

My horse, is a shackled old man,
His, his remorse, was that he couldn't survey,
The skies, right before,
Right before they went gray,
My horse and my remorse,
Flying over a great bay

Wired were the eyes of a horse on a jet pilot,
One that smiled when he flew over the bay,
Wired were the eyes of a horse on a jet pilot,
One that smiled when he flew over the bay

My, source, is the source of all creation,
Her, discourse, is that we all don't survey
The skies, right before,
Right before they go gray,
My source, and my remorse,
Flying over a great bay,

Wired were the eyes of a horse on a jet pilot,
One that smiled when he flew over the bay,
Wired were the eyes of a horse on a jet pilot,
One that smiled when he flew over the bay
Where were the eyes of a horse on a jet pilot,
One that smiled when he flew over the bay,
Where were the eyes of a horse on a jet pilot,
One that smiled when he flew over the bay

Wired were the eyes of a horse on a jet pilot,
One that smiled when he flew over the bay,
Wired were the eyes of a horse on a jet pilot,
One that smiled when he flew over the bay
Where were the eyes of a horse on a jet pilot,
One that smiled when he flew over the bay,
Where were the eyes of a horse on a jet pilot,
One that smiled when he flew over the bay

ACORDES PARA GUITARRA

PIANO UKELELE


COMENTARIOS

Aún no hay comentarios,

¡escribe el primero!

Escribe una pregunta, duda o comentario sobre esta canción, te responderemos a la brevedad.

Las más tocadas de System of a Down

Toca una Canción al Azar de System of a Down