Compartir


Imprimir FAQ
+A
-A

Texto

Desplazamiento

Transportador

Color de Fondo

Archivos

-A
+A
Afinação(C,G,C,F,A,D)

D-----|-----------------------------------
A-----|-----------------------------------
F-----|-----------------------------------
C-----|-----------------------------------
G-10-|---0-8-0-8---x4---------------
C-10-|---0-8-0-8--------------------

D---------------------------------------
A---------------------------------------
F---------------------------------------
C---------------------------------------
G--0-8-0-4----x8------------------------
C--0-8-0-4------------------------------

D-10-10--10--10-10-10-------x4----------
A---------------------------------------
F---------------------------------------
C---------------------------------------
G---------------------------------------
C---------------------------------------

D---------------------------------------
A---------------------------------------
F---------------------------------------
C---------------------------------------
G-0-0-3-0-0-3---x2----------------------
C-0-0-3-0-0-3---------------------------

D-----------------|----------------------
A-----------------|----------------------
F-----------------|----------------------
C--------------x4-|----------------------
G-0-0-3-0-0-3-----|-3-0000-3-0000--x4----
C-----------------|----------------------

D---------------------------------------
A---------------------------------------
F---------------------------------------
C---------------------------------------
G-0-2-3-33-3--0-2-3-x-x-x-x-x-----------
C-0-2-3-33-3--0-2-3-x-x-x-x-x-----------

D---------------------------------------------------
A---------------------------------------------------
F---------------------------------------------------
C---------------------------------------------------
G-xxxxx-xxxxx-xxxxx-xxxxx---00000-00000-00000-00000-
C-xxxxx-xxxxx-xxxxx-xxxxx---00000-00000-00000-00000-

D---------------------------------------
A---------------10----------------------
F----------10---10----------------------
C----------10---10---x4-----------------
G-----------8---------------10---------
C-0-------------------------------------

D-----------------------------------------
A-----------------------------------------
F-----------------------------------------
C-000000000000000000003333333333333333333-
G-----------------------------------------
C-----------------------------------------

D-----------------------------------------
A-----------------------------------------
F-----------------------------------------
C-----------------------------------------
G-000000000000000000003333333333333333333-
C-000000000000000000003333333333333333333-



Letra:

Cursed Earth, Cursed Earth, Cursed Earth, Cursed Earth.

I will never feed off the evergreen luster of your heart all because we all live in the valley of the walls when we speak we can peak from the windows of their mouths to see the land the women chant as they fly up to the sun.

You never think you know why,
Know, You never think you know why,
Know, You never think you know why,
Know, Ever think you know why,
Know.

Books all say different things while people flap their yellow wings trying 
to soar by being a whore of life and almost everything the sheep that ran 
off from the herd may be dead but now's a bird able to fly able to die able 
to break your cursed earth


You never think you know why,
Know, You never think you know why,
Know, You never think you know why,
Know, Ever think you know why,
Know.

On the other side, on the other side, the other side,
Do you ever try to fly, Do you ever try to fly?
Have you ever wanted to die, you ever want to die?

Don't ever try to fly, don't ever try to fly,
Don't ever try to fly, unless you leave your body on the other side,
Never try to die, you ever try to die.

Know, You never think you know why,
Know, You never think you know why,
Know, You never think you know why,
Know, Ever think you know why, Know.

Watch them all fall down,
Revolution, the only solution,
The armed response of an entire nation,
Revolution, the only solution,
We've taken all your shit, now it's time for restitution.

The plan was mastered and called Genocide (Never want to see you around)
Took all the children and then we died, (Never want to see you around)
The few that remained were never found, (Never want to see you around)
All in a system , Down

HERRAMIENTAS ACORDESWEB:


LETRA DE LA CANCIÓN:

Ver la letra sola (sin acordes)

OTRAS VERSIONES DE LA MISMA CANCIÓN:

Ver. 2 Ver. 3 Ver. 4 Ver. 5 Ver. 6

DESCARGAR PDF / IMPRIMIR CANCIÓN



ACORDES PARA GUITARRA

PIANO UKELELE


TOP 20: Las más tocadas de System of a Down


Acordes

Cerrar

15.42

x

225