Lonely Day
System of a Down
Acordes

Subida por Rolando
Álbum: Hypnotize ( 2005)


Más Versiones
Ver. 2 Ver. 3 Ver. 4 Ver. 5 Ver. 6

Cambiar Cifrado
Americano Latino

Cambiar Tonalidad
-1 +1

Partir Pantalla Imprimir FAQ

+A
-A


Ver solo la LETRA
Afinação: Db  Ab  Db  Gb  Bb  Eb

Intro 2x: Am F6(11+) C E7
Dedilhado:
Am F6(11+)
Eb|-----------------------------------------|
Bb|----------1-----------------0------------|
Gb|-------2-----2-----------2-----2---------|
Db|----2-----------2-----0-----------0------|
Ab|-0---------------------------------------|
Db|-------------------3---------------------|

C E7
Eb|-----------------------------------------|
Bb|----------1-----------------0------------|
Gb|-------0-----0-----------1-----1---------|
Db|----2-----------2-----0-----------0------|
Ab|-3---------------------------------------|
Db|-------------------2---------------------|


Primeira Parte:
Am F6(11+)
Such a lonely day
C E7
And it's mine
Am F6(11+) C E7
The most loneliest day in my li-----fe

Am F6(11+)
Such a lonely day
C E7
Should be banned
Am F6(11+) C E7
It's a day that I can't sta-----nd

Refrão:
A5 F5 C5 E5
The most loneliest day in my li-------fe
A5 F5 C5 E5
The most loneliest day in my li-------fe

Segunda parte:
Am F6(11+)
Such a lonely day
C E7
Shouldn't exist
Am F6(11+) C E7
It's a day that I'll never mi-----ss

Am F6(11+) (Riff 1)
Such a lonely day
C E7
And it's mine
Am F6(11+) C E7
The most loneliest day in my li-----fe
Riff 1:
Eb|---------------------------------------------------|
Bb|--13--10--13--10--10/12~-------10--10--9~----------|
Gb|---------------------------------------------------|
Db|--14--10--14--10--10/12~-------10------9~----------|
Ab|---------------------------------------------------|
Db|---------------------------------------------------|


Ponte - Riff 2:
F5 E5
And if you go
G5 A5
I wanna go with you
F5 E5
And if you die
G5 A5
I wanna die with you
F5 E5
Take your hand
A5
And walk away
Riff 2:
Eb|---------------------------------------------------|
Bb|-10--10--10--9~-------12--12--12--13--12--10~------|
Gb|---------------------------------------------------|
Db|-10----------9~-------12----------14--12--10~------|
Ab|---------------------------------------------------|
Db|---------------------------------------------------|

Eb|---------------------------------------------------|
Bb|-13--13--13--12~------15--15--15--17--18--17~------|
Gb|---------------------------------------------------|
Db|-14----------12~------15--------------19-----------|
Ab|---------------------------------------------------|
Db|---------------------------------------------------|


Solo: A5 F5 C5 E5
(Guitarra 1)

Eb|-12~----12-----------------------------------------|
Bb|-----------15-13-12---13-12~---13-12~------15------|
Gb|---------------------------------------13----------|
Db|---------------------------------------------------|
Ab|---------------------------------------------------|
Db|---------------------------------------------------|

Eb|-------------------------------12-10-12-13~--------|
Bb|-13-12-13-15~---15-13-15-17~-----------------------|
Gb|---------------------------------------------------|
Db|---------------------------------------------------|
Ab|---------------------------------------------------|
Db|---------------------------------------------------|

Eb|-13-12-13-15~--/17-15-13-12-13-12-13-12-10-8-10-12-|
Bb|---------------------------------------------------|
Gb|---------------------------------------------------|
Db|---------------------------------------------------|
Ab|---------------------------------------------------|
Db|---------------------------------------------------|

Eb|-0-0-0-20-20-20-17h19p17-16h17p16-13h16p13-12h13p12|
Bb|---------------------------------------------------|
Gb|---------------------------------------------------|
Db|---------------------------------------------------|
Ab|---------------------------------------------------|
Db|---------------------------------------------------|

Eb|---------------------------------------------------|
Bb|-15h17p15-13h15p13-12h13p12------------------------|
Gb|----------------------------14h16p14-13h14p13------|
Db|---------------------------------------------------|
Ab|---------------------------------------------------|
Db|---------------------------------------------------|

Eb|---------------------------------------------------|
Bb|-----------12h13h15p13p12----------12h13h15p13p12--|
Gb|-13h14h16-----------------14-13h14-----------------|
Db|---------------------------------------------------|
Ab|---------------------------------------------------|
Db|---------------------------------------------------|

Eb|---------------------------------------------------|
Bb|----------12h13h15p13p12----------12h13h15p13p12---|
Gb|-14-13h14----------------14-13h14------------------|
Db|---------------------------------------------------|
Ab|---------------------------------------------------|
Db|---------------------------------------------------|

Eb|---------------------------------------------------|
Bb|----------12h13h15p13p12----------12h13h15p13p12---|
Gb|-14-13h14----------------14-13h14------------------|
Db|---------------------------------------------------|
Ab|---------------------------------------------------|
Db|---------------------------------------------------|

Eb|---------------------------------------------------|
Bb|----------12h13h15p13p12----------12h13h15p13p12---|
Gb|-14-13h14----------------14-13h14------------------|
Db|---------------------------------------------------|
Ab|---------------------------------------------------|
Db|---------------------------------------------------|

Eb|---------------------------------------------------|
Bb|----------12h13h15p13p12----------12h13h15p13p12---|
Gb|-14-13h14----------------14-13h14------------------|
Db|---------------------------------------------------|
Ab|---------------------------------------------------|
Db|---------------------------------------------------|

Eb|-------------------------17~~----------------------|
Bb|----------12h13h15p13p12---------------------------|
Gb|-14-13h14------------------------------------------|
Db|---------------------------------------------------|
Ab|---------------------------------------------------|
Db|---------------------------------------------------|

(Guitarra 2)

Eb|---------------------------------------------------|
Bb|-13~----13-12------------------------------12------|
Gb|--------------14-12---14-12~---14-12~--------------|
Db|---------------------------------------14----------|
Ab|---------------------------------------------------|
Db|---------------------------------------------------|

Eb|---------------------------------------------------|
Bb|-------------------------------13-12-13-15~--------|
Gb|-14-12-14-16~---16-14-16-17~-----------------------|
Db|---------------------------------------------------|
Ab|---------------------------------------------------|
Db|---------------------------------------------------|

Eb|---------------------------------------------------|
Bb|-15-13-15-17~--18-17-15-13-15-13-15-13-12----12----|
Gb|------------------------------------------14----14-|
Db|---------------------------------------------------|
Ab|---------------------------------------------------|
Db|---------------------------------------------------|

Eb|---------------------------------------------------|
Bb|-----17-17-17--13h15p13-12h13p12-------------------|
Gb|-14------------------------------14h16p14-12h14p12-|
Db|---------------------------------------------------|
Ab|---------------------------------------------------|
Db|---------------------------------------------------|

Eb|---------------------------------------------------|
Bb|---------------------------------------------------|
Gb|-10h12p10-9h10p9-----------------------------------|
Db|-----------------12h14p12-10h12p10-9h10p9----------|
Ab|---------------------------------------------------|
Db|---------------------------------------------------|

Eb|---------------------------------------------------|
Bb|---------------------------------------------------|
Gb|---------9h10h12p10p9---------9h10h12p10p9---------|
Db|-9h10h12--------------10-9h10----------------------|
Ab|---------------------------------------------------|
Db|---------------------------------------------------|

Eb|---------------------------------------------------|
Bb|---------------------------------------------------|
Gb|---------9h10h12p10p9---------9h10h12p10p9---------|
Db|-9h10h12--------------10-9h10----------------------|
Ab|---------------------------------------------------|
Db|---------------------------------------------------|

Eb|---------------------------------------------------|
Bb|---------------------------------------------------|
Gb|---------9h10h12p10p9---------9h10h12p10p9---------|
Db|-9h10h12--------------10-9h10----------------------|
Ab|---------------------------------------------------|
Db|---------------------------------------------------|

Eb|---------------------------------------------------|
Bb|---------------------------------------------------|
Gb|---------9h10h12p10p9---------9h10h12p10p9---------|
Db|-9h10h12--------------10-9h10----------------------|
Ab|---------------------------------------------------|
Db|---------------------------------------------------|

Eb|---------------------------------------------------|
Bb|---------------------------------------------------|
Gb|---------9h10h12p10p9---------9h10h12p10p9---------|
Db|-9h10h12--------------10-9h10----------------------|
Ab|---------------------------------------------------|
Db|---------------------------------------------------|

Eb|---------------------------------------------------|
Bb|---------------------------------------------------|
Gb|---------9h10h12p10p9-12/14~-----------------------|
Db|-9h10h12-------------------------------------------|
Ab|---------------------------------------------------|
Db|---------------------------------------------------|

(Guitarra 3 - Repete o Solo inteiro)

Eb|---------------------------------------------------|
Bb|-10-10-10-10-10-10--10-10-10-10-10-10--------------|
Gb|---------------------------------------------------|
Db|---------------------------------------------------|
Ab|---------------------------------------------------|
Db|---------------------------------------------------|
/

Refrão:
A5 F5 C5 E5 (Riff 3)
The most loneliest day in my li-------fe
A5 F5 C5 E5 (Riff 3)
The most loneliest day in my li-------fe
A5 F5 C5 E5 ( A5 F5 C5 E5 ) A5
The most loneliest day in my li--------------------------fe
Riff 3:
E5
Eb|-----------------------------------------|
Bb|-----------------------------------------|
Gb|-----------------------------------------|
Db|-2---------------------------------------|
Ab|-2--2-2-2-3-2-0-2-0----------------------|
Db|-2---------------------------------------|


Am F6(11+)
Such a lonely day
C E7
And it's mine
Am F6(11+) C E7 A5
It's a day that I'm glad I survi-----ved
Final:
A5
Eb|-----------------------------------------|
Bb|-------------10--------------------------|
Gb|-9---9-----------------------------------|
Db|-7-------7-------------------------------|
Ab|-0---------------------------------------|
Db|-----------------------------------------|

ACORDES PARA GUITARRA

PIANO UKELELE
Am
C
E7
A5
F5
C5
E5
G5


COMENTARIOS

Aún no hay comentarios,

¡escribe el primero!

Escribe una pregunta, duda o comentario sobre esta canción, te responderemos a la brevedad.

Las más tocadas de System of a Down

Toca una Canción al Azar de System of a Down
Am
C
E7
A5
F5
C5
E5
G5