Marmalade
System of a Down
Acordes

Subida por KarenTorres50


Más Versiones
Ver. 2 Ver. 3 Ver. 4 Ver. 5 Ver. 6

Cambiar Cifrado
Americano Latino

Cambiar Tonalidad
-1 +1

Partir Pantalla Imprimir FAQ

+A
-A
AFINAÇÃO: C G C F A D

[INTRO PT 1] (Repita o necessário)

D|-------------------------------------------------------------------------|
A|-------------------------------------------------------------------------|
F|---------5-------5-------5-------5-------4-------4-------4-------4-------|
C|-----7-7---7-7-7---7-7-7---7-7-7---7-6-6---6-6-6---6-6-6---6-6-6---6-----|
G|-------------------------------------------------------------------------|
C|-------------------------------------------------------------------------|

[INTRO PT 2] (Repita o necessário)

D|-------------------------------------------------------------------------|
A|-------------6-6-5-5---------6-6-5-5---------6-6-5-5---------6-6-5-5-----|
F|---------5-5-------------5-5-------------4-4-------------4-4-------------|
C|-----7-7-------------7-7-------------6-6-------------6-6-----------------|
G|-------------------------------------------------------------------------|
C|-------------------------------------------------------------------------|

[CHORUS PT 1] (Repita o necessário | o que está () somente na primeira)

D|-------------------------------------------------------------------------|
A|-------------------------------------------------------------------------|
F|-------------------------------------------------------------------------|
C|---------------------------------3------------1--------------------------|
G|-----0-0-3-3-1-1-----0-0-3-3-1-1---0-0-3-3-1-1--0-0-3-3-1-1--------------|
C|-----------------2-2----------------------------------------2-(2)--------|

[CHORUS PT 2] (Repita o necessário)

D|-------------------------------------------------------------------------|
A|---5---5---5---5---5---5---5---5---5---5---5---5---5---5---5-5-5-5-5-5---|
F|---5---5---5---5---5---5---5---5---5---5---5---5---5---5---5-5-5-5-5-5---|
C|-------------------------------------------------------------------------|
G|-------------------------------------------------------------------------|
C|-------------------------------------------------------------------------|

[CHORUS PT 3] (Repita o necessário)

D|-------------------------------------------------------------------------|
A|-------------------------------------------------------------------------|
F|-------------------------------------------------------------------------|
C|-------------------------------------------------------------------------|
G|---7-7-10-7-7-7-10-7-7-7-10-7-7-7-10-7--6-6-9-6-6-6-9-6-6-6-9-6-6-6-9-6--|
C|---7-7-10-7-7-7-10-7-7-7-10-7-7-7-10-7--6-6-9-6-6-6-9-6-6-6-9-6-6-6-9-6--|

[INTRO PT 2](Repita o necessário)

D|-------------------------------------------------------------------------|
A|-------------6-6-5-5---------6-6-5-5---------6-6-5-5---------6-6-5-5-----|
F|---------5-5-------------5-5-------------4-4-------------4-4-------------|
C|-----7-7-------------7-7-------------6-6-------------6-6-----------------|
G|-------------------------------------------------------------------------|
C|-------------------------------------------------------------------------|

[{1/2}CHORUS PT 2]

D|-----------------------------------|
A|---5---5---5---5---5---5---5---5---|
F|---5---5---5---5---5---5---5---5---|
C|-----------------------------------|
G|-----------------------------------|
C|-----------------------------------|

[CHORUS PT 1]

D|-------------------------------------------------------------------------|
A|-------------------------------------------------------------------------|
F|-------------------------------------------------------------------------|
C|---------------------------------3------------1--------------------------|
G|-----0-0-3-3-1-1-----0-0-3-3-1-1---0-0-3-3-1-1--0-0-3-3-1-1--------------|
C|-----------------2-2----------------------------------------2------------|

[CHORUS PT 3] (Repita o necessário)

D|-------------------------------------------------------------------------|
A|-------------------------------------------------------------------------|
F|-------------------------------------------------------------------------|
C|-------------------------------------------------------------------------|
G|---7-7-10-7-7-7-10-7-7-7-10-7-7-7-10-7--6-6-9-6-6-6-9-6-6-6-9-6-6-6-9-6--|
C|---7-7-10-7-7-7-10-7-7-7-10-7-7-7-10-7--6-6-9-6-6-6-9-6-6-6-9-6-6-6-9-6--|

[INTRO PT 2] (Repita o necessário)

D|-------------------------------------------------------------------------|
A|-------------6-6-5-5---------6-6-5-5---------6-6-5-5---------6-6-5-5-----|
F|---------5-5-------------5-5-------------4-4-------------4-4-------------|
C|-----7-7-------------7-7-------------6-6-------------6-6-----------------|
G|-------------------------------------------------------------------------|
C|-------------------------------------------------------------------------|

[BRIDGE] (2x)

D|-------------------------------------------------------------------------|
A|-----5-6-5---5-6-5---5-6-5---5-6-5---5-6-5---5-6-5---5-6-5---5-6-5-------|
F|-------------------------------------------------------------------------|
C|---7-------7-------7-------7-------6-------6-------6-------6-------------|
G|-------------------------------------------------------------------------|
C|-------------------------------------------------------------------------|

[SOLO]

D|--8--8--8--8--8--8--8--8-10-10-10-10-12-12-12-12-------------------------|
A|-10-10-10-10-10-10-10-10-12-12-12-12-13-13-13-13-12-12-12-12-12-12-12-12-|
F|-------------------------------------------------13-13-13-13-13-13-13-13-|
C|-------------------------------------------------------------------------|
G|-------------------------------------------------------------------------|
C|-------------------------------------------------------------------------|

D|--12-12-12-12-10-10-10-10--8--8--8--8--8--8--8-10-10-10-10-12-12-12-12---|
A|--13-13-13-13-12-12-12-12-10-10-10-10-10-10-10-12-12-12-12-13-13-13-13---|
F|-------------------------------------------------------------------------|
C|-------------------------------------------------------------------------|
G|-------------------------------------------------------------------------|
C|-------------------------------------------------------------------------|

D|-------------------------12-12-12-12-10-10-10-10-------------------------|
A|-12-12-12-12-12-12-12-12-13-13-13-13-12-12-12-12-10-10-12-12-13-13-12-12-|
F|-12-12-12-12-12-12-12-12-------------------------------------------------|
C|-------------------------------------------------------------------------|
G|-------------------------------------------------------------------------|
C|-------------------------------------------------------------------------|

D|---10-10-----------------------------------------------------------------|
A|---------13-13-12-12-13-12-9-9-10-10-12-12-10-10-13-13-12-12-10-12-12----|
F|-------------------------------------------------------------------------|
C|-------------------------------------------------------------------------|
G|-------------------------------------------------------------------------|
C|-------------------------------------------------------------------------|

D|-------------------------10-10-------------------------------------------|
A|-10-10-12-12-13-13-12-12-------13-13-12-12-13-12-------10-10-12-12-10-10-|
F|-------------------------------------------------12-12-------------------|
C|-------------------------------------------------------------------------|
G|-------------------------------------------------------------------------|
C|-------------------------------------------------------------------------|

D|-12-12-10-10-13-13-12\-|
A|------------------------|
F|------------------------|
C|------------------------|
G|------------------------|

{SOMENTE O BAIXO}

[BUILD-UP] (Repita o necessário | ABAFADO)

D|-----------------------------|
A|---14-14-14-14-14-14-14-14---|
F|---15-15-15-15-15-15-15-15---|
C|-----------------------------|
G|-----------------------------|
C|-----------------------------|

[CHORUS PT 3] (Repita o necessário)

D|-------------------------------------------------------------------------|
A|-------------------------------------------------------------------------|
F|-------------------------------------------------------------------------|
C|-------------------------------------------------------------------------|
G|---7-7-10-7-7-7-10-7-7-7-10-7-7-7-10-7--6-6-9-6-6-6-9-6-6-6-9-6-6-6-9-6--|
C|---7-7-10-7-7-7-10-7-7-7-10-7-7-7-10-7--6-6-9-6-6-6-9-6-6-6-9-6-6-6-9-6--|

[INTRO PT 2] (Repita o necessário)

D|-------------------------------------------------------------------------|
A|-------------6-6-5-5---------6-6-5-5---------6-6-5-5---------6-6-5-5-----|
F|---------5-5-------------5-5-------------4-4-------------4-4-------------|
C|-----7-7-------------7-7-------------6-6-------------6-6-----------------|
G|-------------------------------------------------------------------------|
C|-------------------------------------------------------------------------|

[FINAL]

D|---------------------------------------|
A|-----5-6-5---5-6-5---5-6-5---5-6-5-----|
F|---------------------------------------|
C|---7-------7-------7-------7-------6---|
G|---------------------------------------|
C|---------------------------------------|

ACORDES PARA GUITARRA

PIANO UKELELE


COMENTARIOS

Aún no hay comentarios,

¡escribe el primero!

Escribe una pregunta, duda o comentario sobre esta canción, te responderemos a la brevedad.

Las más tocadas de System of a Down

Toca una Canción al Azar de System of a Down