Metro
System of a Down
Acordes

Subida por Pilot


Más Versiones
Ver. 2 Ver. 3 Ver. 4 Ver. 5 Ver. 6

Cambiar Cifrado
Americano Latino

Cambiar Tonalidad
-1 +1

Partir Pantalla Imprimir FAQ

+A
-A
^- bend


Intro:
mini-riff (2x)
mini-riff (2x) + riff baixo
solo1 + riff baixo (2x)


mini-riff riff baixo
e|-12--12--12--12-12--12--12-12--12-|-----------------------|
B|----------------------------------|-----------------------|
G|----------------------------------|-----------------------|
D|----------------------------------|-----------------------|
A|----------------------------------|-----------------------|
E|----------------------------------|-0--4-3-0-6--6--3-4--3-|


solo1
e|-8----------------------|
B|----8--9-6--8--4-6-3----|
G|---------------------5^-|
D|------------------------|
A|------------------------|
E|------------------------|



(riff baixo)
I'm alone
Sitting with my empty glass
My four walls
Follow me through my past
I was on a Paris train
I emerged in London rain
And you were waiting there
Swimming through apologies


riff1
e|------------|
B|------------|
G|------------|
D|----------8-|
A|-8--11-6--6-|
E|-6--8--4----|


(riff1)
I remember searching for the perfect words
I was hoping you might change your mind
I remember a soldier sleeping next to me
Riding on The Metro


riff baixo

riff1
e|-8-x-|
B|-8-x-|
G|-----|
D|-----|
A|-----|
E|-----| (em ritmo estilo "reggae")

(riff baixo + riff2)
I was smiling as you took my hand
So removed
We spoke in France
Minutes passed with shallow words
Years have passed and still the hurt
Minutes passed with shallow words
Years have passed and still the hurt
I can see you now
Smiling as you pulled away
Sorry


(riff1)
I remember the letter wrinkled in my hand
"I'll love you always" filled my eyes
I remember a night we walked along the seine
Riding on The Metro


G#


solo
+-------2x------+
e|-8-------------|-8----15-13-10-11-8-----|
B|----8--9-6-8-9-|----8-----------------8-|
G|----------------------------------------|
D|----------------------------------------|
A|----------------------------------------|
E|----------------------------------------|

+-------2x------+
e|-8-------------|-8----15-13-10-11--------------------------|
B|----8--9-6-8-9-|----8-------------13-12-11-10--13-12-11-10-|
G|-----------------------------------------------------------|
D|-----------------------------------------------------------|
A|-----------------------------------------------------------|
E|-----------------------------------------------------------|


(riff1)
I remember a feeling coming over me
The soldier turned, then looked away
I remember hating you for loving me
Riding on The Metro


Final: riff baixo + guitarra fazendo o mesmo riff(4x)

ACORDES PARA GUITARRA

PIANO UKELELE
G#


COMENTARIOS

Aún no hay comentarios,

¡escribe el primero!

Escribe una pregunta, duda o comentario sobre esta canción, te responderemos a la brevedad.

Las más tocadas de System of a Down

Toca una Canción al Azar de System of a Down
G#