Mind
System of a Down
Acordes

Subida por Hector
Álbum: System of a Down ( 1998)


Más Versiones
Ver. 2 Ver. 3 Ver. 4 Ver. 5 Ver. 6

Cambiar Cifrado
Americano Latino

Cambiar Tonalidad
-1 +1

Partir Pantalla Imprimir FAQ

+A
-A


Ver solo la LETRA
Afinação(C,G,C,F,A,D)
D|----------|-------|
A|---8---7^-|---8---|
F|-5---5----|-5---5-|
C|-----2x---|-------|
G|----------|-------|
C|----------|-------|

D|-------------------------------------|repetir quantas
A|---7-8-10----7-8-10-8-7------8-7-----|vezes for necessario.
F|-5---------5------------7-5------7-5-|
C|-------------------------------------|
G|-------------------------------------|
C|-------------------------------------|

(abafado) (solto)
D|-------|----|
A|-------|----|
F|-------|----|
C|-000000|000-|
G|-000000|000-|
C|-000000|000-|

Vesro:1
D|---------------------------|------------------------|
A|---------------------------|------------------------|
F|---------------------------|------------------------|
C|-0---1-3----0---3-2-1-0----|-0---1-3---0---3-2-1----|
G|-0---1-3----0---3-2-1-0----|-0---1-3---0---3-2-1----|
C|-0---1-3----0---3-2-1-0----|-0---1-3---0---3-2-1----|

D|-----------|-----------------|
A|-------12^-|-----------------|
F|-12^-------|-------15----15--|
C|-----------|--16^-----16^----|
G|-----------|-----------------|
C|-----------|-----------------|
Repete Verso:1

Verso:2
D|-------------------------|
A|-------------------------|
F|-------------------------|
C|--0-0-0-0-0-0-0-0-6-6-6--|
G|--0-0-0-0-0-0-0-0-6-6-6--|
C|--0-0-0-0-0-0-0-0-6-6-6--|
Verso:3
D|------------------------------|
A|------------------------------|
F|------------------------------|
C|-7-6-7-6-7-7-7-6-7-6----------|
G|-7-6-7-6-7-7-7-6-7-6----------|
C|-7-6-7-6-7-7-7-6-7-6----------|

D|----------------------|----------------------------------|
A|-----------12---12----|--12p10h12p10-repete-muito-rapido-|
F|-12---12--------------|----------------------------------|
C|----------------------|----------------------------------|
G|----------------------|----------------------------------|
C|----------------------|----------------------------------|
Repete Verso:1
Repete Verso:2
Repete Verso:3
(abafado)
D|-----------------------|---------------------|
A|-----------------------|---------------------|repete quantas vezes
F|-----------------------|---------------------|for necessario.
C|-----------------------|-7-6-7-6-7-7-7-6-7-6-|
G|-----------------------|-7-6-7-6-7-7-7-6-7-6-|
C|-7-6-7-6-7-6-7-6-7-7-7-|-7-6-7-6-7-7-7-6-7-6-|

D|--------------------------------------------|
A|--------------------------------------------|
F|--------------------------------------------|
C|-----------------------repetir varias vezes-|
G|-------5-5-4-4-3----------------------------|
C|-0------------------------------------------|

Letra:

Look at each other, Look at each other, Look at each other, Look at each other.

Go away, Go away, Go away, Go away.......

Mutually, mentally molested children of a Mother,
Mutually, mentally molested children of Sin,
The ever so popular beating that took you under,
The ever so popular beating that broke your skin.

Free thinkers are dangerous,
Blame, Hate, For Fate's Seed.

Go away, Go away, Go away, Go away.......

Need the one you love and love the ones you need,
Need the one you love and love the ones you bleed,
Lives rearranged and lives in my range can you breath
Lives rearranged and lives in my range can you see.

Free thinkers are dangerous,
Blame, Hate, For Fate's, Seed.

Why, Why, Why, Why,
Gonna let you mother fuckers die, Gonna let you mother fuckers die,
Gonna let you mother fuckers die, Why........

Look at each other, Look at each other..

ACORDES PARA GUITARRA

PIANO UKELELE
C
G
F
A
D


COMENTARIOS

Aún no hay comentarios,

¡escribe el primero!

Escribe una pregunta, duda o comentario sobre esta canción, te responderemos a la brevedad.

Las más tocadas de System of a Down

Toca una Canción al Azar de System of a Down
C
G
F
A
D