Compartir


Imprimir FAQ
+A
-A

Texto

Desplazamiento

Transportador

Color de Fondo

Archivos

-A
+A
Afinação(C,G,C,F,A,D)
introdução
D|-2p3--2p3--2p3--2p3--2p3--2p3--2p3--2p3--2p3--2p3--2p3--2p3--2p3--2p3-|
A|----2----2----2----2----2----2----2----2----2----2----2----2----2----2|
F|----------------------------------------------------------------------|
C|----------------------------------------------------------------------|
G|----------------------------------------------------------------------|
C|----------------------------------------------------------------------|


Verso:1
D|-----------------------------------|
A|-----------------------------------|
F|-----------------------------------|
C|-55-6-5-6-5-6-5-6-55-6-5-6-5-6-5-6-|
G|-55-6-5-6-5-6-5-6-55-6-5-6-5-6-5-6-|
C|-55-6-5-6-5-6-5-6-55-6-5-6-5-6-5-6-|


Verso:2
D|-------------------------------------------------|
A|-------------------------------------------------|
F|-------------------------------------------------|
C|-------------------------------------------------|
G|-------------------------------------------------|
C|-6p5p0-6p5p0-6p5p0-6p5p0-6p5p0-6p5p0-6p5p0-6p5p0-|
               Repete Verso:1
               Repete Verso:2

Verso:3
D|--------------------------------------------------|
A|--------------------------------------------------|
F|--------------------------------------------------|
C|--------------------------------------------------|
G|--------------------------------------------------|
C|--5--6--5--6--5--6--5--6--5--6--5--6--5--6--5--6--|
               Repete Verso:2
               Repete Verso:3
Verso:4
D|-------------------------|
A|-------------------------|
F|-------------------------|
C|-5-1-6-6-6-6-5-1-6-6-6-6-|
G|-5-1-6-6-6-6-5-1-6-6-6-6-|
C|-5-1-6-6-6-6-5-1-6-6-6-6-|
Verso:5
D|---------------------|
A|---------------------|
F|---------------------|
C|-5-5-3-3-6-6-6-6-6-6-|
G|-5-5-3-3-6-6-6-6-6-6-|
C|-5-5-3-3-6-6-6-6-6-6-|
     Repete Verso:1
     Repete Verso:2 
  só que dessa vez, na troca
  do Verso:1 para o 2 é muito
  mais rapida.   
     Repete Verso:3
     Repete Verso:2
     Repete Verso:4
     Repete Verso:5


D|-------------------------------------------------|
A|-------------------------------------------------|
F|---8-7---8p0---------------7-6---7p0-------------|
C|-5-----5-------5-4---5p0 4-----4-------5-4---5p0-|
G|-------------6-----6-----------------5-----5-----|
C|-------------------------------------------------|
              Repete Verso:1
              Repete Verso:2 
              Repete Verso:4
              Repete Verso:5
D|-------------------------------------------------------------------|
A|-------------------------------------------------------------------|
F|-------------------------------------------------------------------|
C|---------------------------------55-6-5-6-5-6-5-6-55-6-5-6-5-6-5-6-|
G|---------------------------------55-6-5-6-5-6-5-6-55-6-5-6-5-6-5-6-|
C|5-5-6-6-8-8-6-6-5-5-3-3-6-6-5-5--55-6-5-6-5-6-5-6-55-6-5-6-5-6-5-6-|



Letra:

I cannot disguise,
All the stomach pains,
And the walking of the canes,
When you, do come out,
And you whisper up to me
In your life of tragedy,

But I cannot grow,
Till you eat the last of me,
Oh when will I be free,
And you, a parasite,
Just find another host,
Just another fool to roast,

Cause you,
My tapeworm tells me what to do,
You,
My tapeworm tells me where to go,
Pull the tapeworm out of your ass, Hey
Pull the tapeworm out of your ass, Hey
Pull the tapeworm out of your ass, Hey
Pull the tapeworm out of your ass, Hey

I cannot deny,
All the evil traits,
And the filling of the crates,
When you, do come out,
And you slither up to me
In your pimpin majesty,

But I cannot grow,
Till you eat the last of me,
Oh when will I be free,
And you, a parasite,
Just find another host,
Just another stool to post,

Cause you,
My tapeworm tells me what to do,
You,
My tapeworm tells me where to go,
Pull the tapeworm out of your ass, Hey
Pull the tapeworm out of your ass, Hey
Pull the tapeworm out of your ass, Hey
Pull the tapeworm out of your ass, Hey
Pull the tapeworm out of me?

I'm just sitting in my room,
With a needle in my hand,
Just waiting for the tomb,
Of some old dying man,
Sitting in my room,
With a needle in my hand,
Just waiting for the tomb,
Of some old dying man?.

Cause you,
My tapeworm tells me what to do,
You,
My tapeworm tells me where to go,
Pull the tapeworm out of your ass, Hey
Pull the tapeworm out of your ass, Hey
Pull the tapeworm out of your ass, Hey
Pull the tapeworm out of your ass, Hey
Hey,Hey,Hey,Hey.

HERRAMIENTAS ACORDESWEB:


LETRA DE LA CANCIÓN:

Ver la letra sola (sin acordes)

OTRAS VERSIONES DE LA MISMA CANCIÓN:

Ver. 2 Ver. 3 Ver. 4 Ver. 5 Ver. 6

DESCARGAR PDF / IMPRIMIR CANCIÓN



ACORDES PARA GUITARRA

PIANO UKELELE


TOP 20: Las más tocadas de System of a Down


Acordes

Cerrar

00.35

x

294