Peephole
System of a Down
Acordes

Subida por Sidneykax
Álbum: System of a Down ( 1998)


Más Versiones
Ver. 2 Ver. 3 Ver. 4 Ver. 5 Ver. 6

Cambiar Cifrado
Americano Latino

Cambiar Tonalidad
-1 +1

Partir Pantalla Imprimir FAQ

+A
-A


Ver solo la LETRA
 Afinação(C,G,C,F,A,D)
Introdução
D|------------------------------------------------------------------|
A|----3---3---3---3---3---3---3---3---3---3---3---3---3---3---3---3-|
F|---3---3---3---3---3---3---3---3---3---3---3---3---3---3---3---3--|
C|-5---5------------------------------5---5-------------------------|
G|----------4---5---0---0---4---5------------4---5---0---4---5------|
C|------------------------------------------------------------------|
Verso:2
D|------------| D|-----------------|
A|---3-3------| A|-----------------|
F|---3-3------| F|-----------------|
C|------------| C|----444444777777-|
G|------------| G|----444444777777-|
C|------------| C|----444444777777-|


Verso:3
D|-------------------------------------------------------|
A|-----(Doze)---141414-151515--------------141414-151515-|
F|-121212121212---------------141414141414---------------|
C|-------------------------------------------------------|
G|-------------------------------------------------------|
C|-------------------------------------------------------|

D|-------------------------------------------------------|
A|--------------141414-151515-1818181818|181818181818|---|
F|-121212121212-------------------------|202020202020|---|
C|------------------------------------------=Bend=-------|
G|-------------------------------------------------------|
C|-------------------------------------------------------|



Verso:4
D|----------------------------------------------------|
A|----------------------------------------------------|
F|----------------------------------------------------|
C|---5--------11-----12----7--11----12----3-----1-----|
G|---5--------11-----12----7--11----12----3-----1-----|
C|---5--------11-----12----7--11----12----3-----1-----|
Repete Introdução
Repete Verso:1
Repete Verso:2
Repete Verso:3
Repete Verso:4

D------------|
A------------|
F------------|
C--333333--1-|
G--333333--1-|
C--333333--1-|

Solo:
D|-------------|----------------------------------------------------|
A|-3-4-3h4p1-3-|-3-4-3h4p1-3-1--------------------------------------|
F|-------------|---------------3-2-3-2h3-0--0---0---0---0---0---0---|
C|-------------|------------------------------6---6---6---6---6---6-|
G|-------------|----------------------------------------------------|
C|-------------|----------------------------------------------------|

D|-10-11-10h11p10-8-10-|-10-11-10h11p10-8-10-8-----------------------------|
A|---------------------|-----------------------11-10-11-10h11-8------------|
F|---------------------|----------------------------------------0---0------|
C|---------------------|------------------------------------------6---6...-|
G|---------------------|---------------------------------------------------|
C|---------------------|---------------------------------------------------|

D|----10-10-10-10-10-----9-9-9-9-9-16-16-16-16-16-16---------------|
A|-8-8--8--8--8--8----7-7-7-7-7-7--14-14-14-14-14-14---------------|
F|-----------------------------------------------------------------|
C|-----------------------------------------------------------------|
G|-----------------------------------------------------------------|
C|-----------------------------------------------------------------|

D|----10-10-10-10-10----9-9-9-9-9-9---8-8h10-8---6-6h8-6-----------|
A|-8-8--8--8--8--8---7-7-7-7-7-7-7--6----------4-------------------|
F|-----------------------------------------------------------------|
C|-----------------------------------------------------------------|
G|-----------------------------------------------------------------|
C|-----------------------------------------------------------------|

D|----10-10-10-10-10----9-9-9-9-9-9-16-16-16-16-16-16--------------|
A|-8-8--8--8--8--8---7-7-7-7-7-7-7--14-14-14-14-14-14--------------|
F|-----------------------------------------------------------------|
C|-----------------------------------------------------------------|
G|-----------------------------------------------------------------|
C|-----------------------------------------------------------------|

D|-9----9----9---9---9---9-9-9-9--9-9--9-9-9-9---------------------|
A|-7----7----7---7---7---7-7-7-7--7-7--7-7-7-7---------------------|
F|-----------------------------------------------------------------|
C|-----------------------------------------------------------------|
G|-----------------------------------------------------------------|
C|-----------------------------------------------------------------|

D|-----------------------------------------------------|
A|-----------------------------------------------------|
F|-----------------------------------------------------|
C|----5---11--12---7--11---12----5---11-12--7--11--12--|
G|----5---11--12---7--11---12----5---11-12--7--11--12--|
C|----5---11--12---7--11---12----5---11-12--7--11--12--|



Letra:

When your stars are baked,
And your rivers fly,
Do you ever believe you were stuck out in the, Sky,

When your castle breaks,
And your feet are dry,
Do you ever believe you were stuck out in the, Sky,

Do you believe, when you're high,
That your life is tried,

Don't you ever get stuck in the sky,
Don't you ever get stuck in the sky,
Don't ever get stuck in the sky, when you're high,

When your moon is fake,
And your mermaids cry,
Do you ever believe you were stuck out in the, Sky,

When your tunnel fades,
And your guide is shy,
Do you ever believe you were stuck out in the, Sky,

Do you believe, when you're high,
That your life is tried,

Don't you ever get stuck in the sky,
Don't you ever get stuck in the sky,
Don't ever get stuck in the sky, when you're high,
Don't you ever get stuck in the sky,
Don't you ever get stuck in the sky,
Don't ever get stuck in the sky, when you're high~

Don't you ever get stuck in the sky,
Don't you ever get stuck in the sky,
Don't you ever get stuck in the sky,
Don't you ever get stuck in the sky,
Don't you ever get stuck in the sky,
Don't you ever get stuck in the sky,
Don't ever get stuck in the sky, when you're high

ACORDES PARA GUITARRA

PIANO UKELELE


COMENTARIOS

Aún no hay comentarios,

¡escribe el primero!

Escribe una pregunta, duda o comentario sobre esta canción, te responderemos a la brevedad.

Las más tocadas de System of a Down

Toca una Canción al Azar de System of a Down