Pictures
System of a Down
Acordes

Subida por Abels
Álbum: Steal This Album! ( 2002)


Más Versiones
Ver. 2 Ver. 3 Ver. 4 Ver. 5 Ver. 6

Cambiar Cifrado
Americano Latino

Cambiar Tonalidad
-1 +1

Partir Pantalla Imprimir FAQ

+A
-A
Drop C (C.G.C.F.A.D)A


D:----------|
A:----------|
F:----------|
C:-1--0-1-3-|
G:-1--0-1-3-|
C:-1--0-1-3-|


B
pm.......
1:----------|---------|
2:----------|---------|
3:----------|---------|
4:-1--0-1-3-|-5-3-1-0-|
5:-1--0-1-3-|-5-3-1-0-|
6:-1--0-1-3-|-5-3-1-0-|


C
pm......... ........
1:----------------|----------|---------|
2:-9-9-9-9-9-9-9--|----------|---------|
3:-7-7-7-7-7-7-7--|----------|---------|
4:-7-7-7-7-7-7-7--|-1--0-1-3-|-5-3-1-0-|
5:-5-5-5-5-5-5-5--|-1--0-1-3-|-5-3-1-0-|
6:----------------|-1--0-1-3-|-5-3-1-0-|


D
pm......... pm......... pm......... pm...
1:----------------|----------------|----------------|----------------|
2:-9-9-9-9-9-9-9--|-9-9-9-9-9-9-9--|-9-9-9-9-9-9-9--|-9-9-9-9-9-9-9--|
3:-7-7-7-7-7-7-7--|-7-7-7-7-7-7-7--|-7-7-7-7-7-7-7--|-7-7-7-7-7-7-7--|
4:-7-7-7-7-7-7-7--|-7-7-7-7-7-7-7--|-7-7-7-7-7-7-7--|-7-7-7-7-7-7-7--|
5:-5-5-5-5-5-5-5--|-5-5-5-5-5-5-5--|-5-5-5-5-5-5-5--|-5-5-5-5-5-5-5--|
6:----------------|----------------|----------------|----------------|


E
1:----------------------------------|-------------------------------------|
2:----------------------------------|-------------------------------------|
3:-7----12--11----15--14----12--11--|--8--7----12--11----15--14----12--11-|
4:----------------------------------|-------------------------------------|
5:-5----10---9----13--12----10---9--|--6--5----10---9----13--12----10---9-|
6:----------------------------------|-------------------------------------|


F
1:----|
2:----|
3:-8~-|
4:----|
5:-6~-|
6:----|


G
1:-----------------------------------|-------------------------------|
2:-----------------------------------|-------------------------------|
3:-----------------------------------|-------------------------------|
4:--/--1--0----5--4----8--7----5--4--|--1--0----5--4----8--7----5--4-|
5:--/--1--0----5--4----8--7----5--4--|--1--0----5--4----8--7----5--4-|
6:--/--1--0----5--4----8--7----5--4--|--1--0----5--4----8--7----5--4-|


H
pm......................................................................
1:-----------------|-----------------|-----------------|-----------------|
2:-----------------|-----------------|-----------------|-----------------|
3:-----------------|-----------------|-----------------|-----------------|
4:-1-1-0-0-0-0-0-0-|-5-5-4-4-4-4-4-4-|-8-8-7-7-7-7-7-7-|-5-5-4-4-4-4-4-4-|
5:-1-1-0-0-0-0-0-0-|-5-5-4-4-4-4-4-4-|-8-8-7-7-7-7-7-7-|-5-5-4-4-4-4-4-4-|
6:-1-1-0-0-0-0-0-0-|-5-5-4-4-4-4-4-4-|-8-8-7-7-7-7-7-7-|-5-5-4-4-4-4-4-4-|


I
1:----|
2:----|
3:----|
4:----|
5:----|
6:-1~-|


J
1:---------------------------------------------|
2:------------------------------9-9-9-9-9-9-9--|
3:-7----12--11----15--14----12--7-7-7-7-7-7-7--|
4:------------------------------7-7-7-7-7-7-7--|
5:-5----10---9----13--12----10--5-5-5-5-5-5-5--|
6:---------------------------------------------|



ORDER:
=====

A 8x
B 4x
C 3x
D
E
F
C 3x
D
E
G
H 2x
I
C 3x
D
J

ACORDES PARA GUITARRA

PIANO UKELELE


COMENTARIOS

Aún no hay comentarios,

¡escribe el primero!

Escribe una pregunta, duda o comentario sobre esta canción, te responderemos a la brevedad.

Las más tocadas de System of a Down

Toca una Canción al Azar de System of a Down