Revenga
System of a Down
Acordes

Subida por jyelpo64
Álbum: Mezmerize ( 2005)


Más Versiones
Ver. 2 Ver. 3 Ver. 4 Ver. 5 Ver. 6

Cambiar Cifrado
Americano Latino

Cambiar Tonalidad
-1 +1

Partir Pantalla Imprimir FAQ

+A
-A
Afinação: C# G# C# F# A# D#

Intro (Clean):

D#|------5--6--6--5--4------------------------|
A#|---6--6--6--6--6--5------------------------|
F#|---7--7--7--7--7--7------------------------|
C#|---7---------------------------------------|
G#|---5---------------------------------------|
C#|------------------------14/4---------------|

Intro 2:

PM.............................
D#|-------------------------------------------|
A#|-------------------------------------------|
F#|-------------------------------------------|
C#|-0-000---000---000---000---000-0--8-8-8----|
G#|-0-000---000---000---000---000-0--8-8-8----|
C#|-0-000---000---000---000---000-0--8-8-8----|

PM........................................
D#|-------------------------------------------|
A#|-------------------------------------------|
F#|-------------------------------------------|
C#|-0-000---000---000-0---885--885--885--885--|
G#|-0-000---000---000-0---885--885--885--885--|
C#|-0-000---000---000-0---885--885--885--885--|

Verso:

PM................................
D#|--------------------------------------|
A#|--------------------------------------|
F#|--------------------------------------|
C#|-----------------------------------11-|
G#|-----------------------------------11-|
C#|-00000--00000--00000--00000--0000--11-|

PM..................
D#|-------------------------------------|
A#|-------------------------------------|
F#|-------------------------------------|
C#|----------------------11-12-11-8-7---|
G#|----------------------11-12-11-8-7---|
C#|-00000--00000---0000--11-12-11-8-7---|

PM................................
D#|--------------------------------------|
A#|--------------------------------------|
F#|--------------------------------------|
C#|-----------------------------------11-|
G#|-----------------------------------11-|
C#|-00000--00000--00000--00000--0000--11-|

PM.................
D#|-----------------------------------|
A#|-----------------------------------|
F#|-----------------------------------|
C#|-------------------11--12--14--15--|
G#|-------------------11--12--14--15--|
C#|-0000--00000--0000-11--12--14--15--|

Refrão (2x):

PM......... PM......... PM......... PM......... PM.........
D#|-------------------------------------------------------------------------------------|
A#|-------------------------------------------------------------------------------------|
F#|-------------------------------------------------------------------------------------|
C#|--0---0-0-0-0-0-0-0---0-0-0-0-0-0-7---7-7-7-7-7-7-7---7-7-7-7-7-7-8---8-8-8-8-8-8-8--|
G#|--0---0-0-0-0-0-0-0---0-0-0-0-0-0-7---7-7-7-7-7-7-7---7-7-7-7-7-7-8---8-8-8-8-8-8-8--|
C#|--0---0-0-0-0-0-0-0---0-0-0-0-0-0-7---7-7-7-7-7-7-7---7-7-7-7-7-7-8---8-8-8-8-8-8-8--|

PM......... PM.........
D#|---------------------------------------------|
A#|---------------------------------------------|
F#|---------------------------------------------|
C#|-8-8-8---7---6---6-6-6-6-6-6-3---3-3-3-3-3-3-|
G#|-8-8-8---7---6---6-6-6-6-6-6-3---3-3-3-3-3-3-|
C#|-8-8-8---7---6---6-6-6-6-6-6-3---3-3-3-3-3-3-|

Verso:

PM................................
D#|--------------------------------------|
A#|--------------------------------------|
F#|--------------------------------------|
C#|-----------------------------------11-|
G#|-----------------------------------11-|
C#|-00000--00000--00000--00000--0000--11-|

PM..................
D#|-------------------------------------|
A#|-------------------------------------|
F#|-------------------------------------|
C#|----------------------11-12-11-8-7---|
G#|----------------------11-12-11-8-7---|
C#|-00000--00000---0000--11-12-11-8-7---|

PM................................
D#|--------------------------------------|
A#|--------------------------------------|
F#|--------------------------------------|
C#|-----------------------------------11-|
G#|-----------------------------------11-|
C#|-00000--00000--00000--00000--0000--11-|

PM.................
D#|-----------------------------------|
A#|-----------------------------------|
F#|-----------------------------------|
C#|-------------------11--12--14--15--|
G#|-------------------11--12--14--15--|
C#|-0000--00000--0000-11--12--14--15--|


Refrão (2x):

PM.......... PM......... PM..........
D#|------------------------------------------------|
A#|------------------------------------------------|
F#|------------------------------------------------|
C#|-0--0-0-0-0-0-0-0--0-0-0-0-0-0-7--7-7-7-7-7-7-7-|
G#|-0--0-0-0-0-0-0-0--0-0-0-0-0-0-7--7-7-7-7-7-7-7-|
C#|-0--0-0-0-0-0-0-0--0-0-0-0-0-0-7--7-7-7-7-7-7-7-|

PM......... PM...........
D#|--------------------------------|
A#|--------------------------------|
F#|--------------------------------|
C#|-7-7-7-7-7-7-8---8-8-8-8-8-8-8--|
G#|-7-7-7-7-7-7-8---8-8-8-8-8-8-8--|
C#|-7-7-7-7-7-7-8---8-8-8-8-8-8-8--|

.... PM......... PM.........
D#|-----------------------------------------|
A#|-----------------------------------------|
F#|-----------------------------------------|
C#|-8-8-8--7--6--6-6-6-6-6-6-3--3-3-3-3-3-3-|
G#|-8-8-8--7--6--6-6-6-6-6-6-3--3-3-3-3-3-3-|
C#|-8-8-8--7--6--6-6-6-6-6-6-3--3-3-3-3-3-3-|

Intro novamente (2x):

PM.............................
D#|-------------------------------------------|
A#|-------------------------------------------|
F#|-------------------------------------------|
C#|-0-000---000---000---000---000-0--8-8-8----|
G#|-0-000---000---000---000---000-0--8-8-8----|
C#|-0-000---000---000---000---000-0--8-8-8----|

PM.......................................
D#|-------------------------------------------|
A#|-------------------------------------------|
F#|-------------------------------------------|
C#|-0-000---000---000-0---885--885--885--885--|
G#|-0-000---000---000-0---885--885--885--885--|
C#|-0-000---000---000-0---885--885--885--885--|

Pré-solo (2x):

D#|------5--6--6--5--6------------------------|
A#|---6--6--6--6--6--6------------------------|
F#|---7--7--7--7--7--7------------------------|
C#|---7---------------------------------------|
G#|---5---------------------------------------|
C#|-------------------------------------------|

Solo (2x):

D#|------------------------------------------|
A#|------------------------------------------|
F#|-----7-----------------10-----------------|
C#|-------7------------------10--------------|
G#|---5-----8--5-4-5-7--8-------11--8-7-8-10-|
C#|------------------------------------------|

D#|--------------------------------------|
A#|--------------------------------------|
F#|---8--------------------7-------------|
C#|-----8--------------------7-----------|
G#|-6-----9--6-5-6-8-----5-----8--5-4-5--|
C#|--------------------------------------|

Refrão (2x):

PM.......... PM......... PM..........
D#|------------------------------------------------|
A#|------------------------------------------------|
F#|------------------------------------------------|
C#|-0--0-0-0-0-0-0-0--0-0-0-0-0-0-7--7-7-7-7-7-7-7-|
G#|-0--0-0-0-0-0-0-0--0-0-0-0-0-0-7--7-7-7-7-7-7-7-|
C#|-0--0-0-0-0-0-0-0--0-0-0-0-0-0-7--7-7-7-7-7-7-7-|

PM......... PM...........
D#|--------------------------------|
A#|--------------------------------|
F#|--------------------------------|
C#|-7-7-7-7-7-7-8---8-8-8-8-8-8-8--|
G#|-7-7-7-7-7-7-8---8-8-8-8-8-8-8--|
C#|-7-7-7-7-7-7-8---8-8-8-8-8-8-8--|

.... PM......... PM.........
D#|-----------------------------------------|
A#|-----------------------------------------|
F#|-----------------------------------------|
C#|-8-8-8--7--6--6-6-6-6-6-6-3--3-3-3-3-3-3-|
G#|-8-8-8--7--6--6-6-6-6-6-6-3--3-3-3-3-3-3-|
C#|-8-8-8--7--6--6-6-6-6-6-6-3--3-3-3-3-3-3-|

Final:

PM................................
D#|--------------------------------------|
A#|--------------------------------------|
F#|--------------------------------------|
C#|-----------------------------------11-|
G#|-----------------------------------11-|
C#|-00000--00000--00000--00000--0000--11-|

PM..................
D#|-------------------------------------|
A#|-------------------------------------|
F#|-------------------------------------|
C#|----------------------11-12-11-8-7---|
G#|----------------------11-12-11-8-7---|
C#|-00000--00000---0000--11-12-11-8-7---|

(x2):
PM.............................
D#|-------------------------------------------|
A#|-------------------------------------------|
F#|-------------------------------------------|
C#|-0-000---000---000---000---000-0--8-8-8----|
G#|-0-000---000---000---000---000-0--8-8-8----|
C#|-0-000---000---000---000---000-0--8-8-8----|

PM........................................
D#|-------------------------------------------|
A#|-------------------------------------------|
F#|-------------------------------------------|
C#|-0-000---000---000-0---885--885--885--885--|
G#|-0-000---000---000-0---885--885--885--885--|
C#|-0-000---000---000-0---885--885--885--885--|

ACORDES PARA GUITARRA

PIANO UKELELE


COMENTARIOS

Aún no hay comentarios,

¡escribe el primero!

Escribe una pregunta, duda o comentario sobre esta canción, te responderemos a la brevedad.

Las más tocadas de System of a Down

Toca una Canción al Azar de System of a Down