She's Like Heroin
System of a Down
Acordes

Subida por Hlugo
Álbum: Hypnotize ( 2005)


Más Versiones
Ver. 2 Ver. 3 Ver. 4

Cambiar Cifrado
Americano Latino

Cambiar Tonalidad
-1 +1

Partir Pantalla Imprimir FAQ

+A
-A


Ver solo la LETRA
Gtr I (Db Ab Db Gb Bb Eb) - 
Gtr II (Db Ab Db Gb Bb Eb) -
Gtr III (Db Ab Db Gb Bb Eb) -

Introdução
Q=195
N.C.
4/4
Gtr I
PM--------------------------------------------------------------|
q E E E E E E q E E E E E E q E E E E E E q E E E E E E 4x
||-----------------|----------------|----------------|------------------||
||o----------------|----------------|----------------|-----------------o||
||-----7-5---------|----7-5---------|----5-4---------|----5-4-----------||
||---------6-5-6---|--------6-5-6---|--------5-4-5---|--------5-4-5-----||
||o-3------------0-|-3------------0-|-2------------0-|-2------------0--o||
||-----------------|----------------|----------------|------------------||


Verso
$
C#5/G# G#
Gtr II
Q E E E E E E Q E E E E E E
||------------------------|-----------------------|
||o-----------------------|-----------------------|
||------------------------|-----------------------|
||--11--11-11-11-11-11-11-|-10--10-10-10-10-10-10-|
||o-11--11-11-11-11-11-11-|-11--11-11-11-11-11-11-|
||------------------------|-----------------------|


C5/G G
Q E E E E E E Q E E E E E E 4x
|-----------------------|-------------------------||
|-----------------------|------------------------o||
|-----------------------|-------------------------||
|-10--10-10-10-10-10-10-|--9---9--9--9--9--9--9---||
|-10--10-10-10-10-10-10-|-10--10-10-10-10-10-10--o||
|-----------------------|-------------------------||


Refrão
D.S.
B5 A5 B5 C5 D5 C5 D5 C5 B5 B5 A5 B5 C5 D5 C5 D5 C5 B5
Gtr I
PM----------------------------| PM----------------------------|
E q E q q E E E E E E q E q E q q E E E E E E q





||---------------|---------------------|--------------|-----------------------||
||o--------------|---------------------|--------------|----------------------o||
||---------------|---------------------|--------------|-----------------------||
||---------------|---------------------|--------------|-----------------------||
||o---9--9-7--9--|-10-12-10-12-10-9-9--|---9--9-7--9--|-10-12-10-12-10-9-9---o||
||----9--9-7--9--|-10-12-10-12-10-9-9--|---9--9-7--9--|-10-12-10-12-10-9-9----||


solinho
N.C.
PM--------------------------------------------------------------|
q E E E E E E q E E E E E E q E E E E E E q E E E E E E
||-----------------|----------------|----------------|------------------||
||o----------------|----------------|----------------|-----------------o||
||-----7-5---------|----7-5---------|----5-4---------|----5-4-----------||
||---------6-5-6---|--------6-5-6---|--------5-4-5---|--------5-4-5-----||
||o-3------------0-|-3------------0-|-2------------0-|-2------------0--o||
||-----------------|----------------|----------------|------------------||


C5/G
Gtr III
E E E E E E E E E E E E E E E E
||--------------------------|-------------------------|
||o-------------------------|-------------------------|
||--------------------------|-------------------------|
||--10-10-10-10-10-10-10-10-|-10-10-10-10-10-10-10-10-|
||o-10-10-10-10-10-10-10-10-|-10-10-10-10-10-10-10-10-|
||--------------------------|-------------------------|


B5/F#
E E E E E E E E E E E E E E E E
|-----------------|-------------------||
|-----------------|------------------o||
|-----------------|-------------------||
|-9-9-9-9-9-9-9-9-|-9-9-9-9-9-9-9-9---||
|-9-9-9-9-9-9-9-9-|-9-9-9-9-9-9-9-9--o||
|-----------------|-------------------||


C5/G
E E E E E E E E E E E E E E E E
||--/16-16-16-16-16-16-16-16-|-16-16-16-16-16-16-16-16-|
||o-/16-16-16-16-16-16-16-16-|-16-16-16-16-16-16-16-16-|
||---------------------------|-------------------------|
||---10-10-10-10-10-10-10-10-|-10-10-10-10-10-10-10-10-|
||o--10-10-10-10-10-10-10-10-|-10-10-10-10-10-10-10-10-|
||---------------------------|-------------------------|


B5/F#
E E E E E E E E E E E E E E E E
|-15-15-15-15-15-15-15-15-|-15-15-15-15-15-15-15-15---||
|-15-15-15-15-15-15-15-15-|-15-15-15-15-15-15-15-15--o||
|-------------------------|---------------------------||
|--9--9--9--9--9--9--9--9-|--9--9--9--9--9--9--9--9---||
|--9--9--9--9--9--9--9--9-|--9--9--9--9--9--9--9--9--o||
|-------------------------|---------------------------||


Refrão pesado
C5
Gtr I
Q E E E E E E Q E E E E E E
||------------------------|-----------------------|
||o-----------------------|-----------------------|
||------------------------|-----------------------|
||--10--10-10-10-10-10-10-|-10--10-10-10-10-10-10-|
||o-10--10-10-10-10-10-10-|-10--10-10-10-10-10-10-|
||--10--10-10-10-10-10-10-|-10--10-10-10-10-10-10-|


B5
Q E E E E E E Q E E E E E E

|----------------|-----------------|
|----------------|-----------------|
|----------------|-----------------|
|-9--9-9-9-9-9-9-|-9--9-9-9-9-9-9--|
|-9--9-9-9-9-9-9-|-9--9-9-9-9-9-9--|
|-9--9-9-9-9-9-9-|-9--9-9-9-9-9-9--|


A5 G5
Q E E E E E E Q E E E E E E Q E E E E E E Q E E E E E E
|----------------|----------------|----------------|-----------------||
|----------------|----------------|----------------|----------------o||
|----------------|----------------|----------------|-----------------||
|-7--7-7-7-7-7-7-|-7--7-7-7-7-7-7-|-5--5-5-5-5-5-5-|-5--5-5-5-5-5-5--||
|-7--7-7-7-7-7-7-|-7--7-7-7-7-7-7-|-5--5-5-5-5-5-5-|-5--5-5-5-5-5-5-o||
|-7--7-7-7-7-7-7-|-7--7-7-7-7-7-7-|-5--5-5-5-5-5-5-|-5--5-5-5-5-5-5--||



C5
Q E E E E E E Q E E E E E E
||------------------------|-----------------------|
||o-----------------------|-----------------------|
||------------------------|-----------------------|
||--10--10-10-10-10-10-10-|-10--10-10-10-10-10-10-|
||o-10--10-10-10-10-10-10-|-10--10-10-10-10-10-10-|
||--10--10-10-10-10-10-10-|-10--10-10-10-10-10-10-|
|
| Gtr II
| Q Q Q Q Q Q Q Q
||--10--------10----------|-10--------10----------|
||o-----10----------10----|-----10----------10----|
||------------------------|-----------------------|
||------------------------|-----------------------|
||o-----------------------|-----------------------|
||------------------------|-----------------------|


B5
Q E E E E E E Q E E E E E E
|--------------------|---------------------|
|--------------------|---------------------|
|--------------------|---------------------|
|--9---9-9--9-9--9-9-|--9---9-9--9-9--9-9--|
|--9---9-9--9-9--9-9-|--9---9-9--9-9--9-9--|
|--9---9-9--9-9--9-9-|--9---9-9--9-9--9-9--|
|
| Q Q Q Q Q Q Q Q
|-10-------10--------|-10-------10---------|
|-----10--------10---|-----10--------10----|
|--------------------|---------------------|
|--------------------|---------------------|
|--------------------|---------------------|
|--------------------|---------------------|


A5
Q E E E E E E Q E E E E E E
|--------------------|--------------------|
|--------------------|--------------------|
|--------------------|--------------------|
|--7---7-7--7-7--7-7-|--7---7-7--7-7--7-7-|
|--7---7-7--7-7--7-7-|--7---7-7--7-7--7-7-|
|--7---7-7--7-7--7-7-|--7---7-7--7-7--7-7-|
|
| Q Q Q Q Q Q Q Q
|-10-------10--------|-10-------10--------|
|-----10--------10---|-----10--------10---|
|--------------------|--------------------|
|--------------------|--------------------|
|--------------------|--------------------|
|--------------------|--------------------|


G5

Q E E E E E E Q E E E E E E
|--------------------|---------------------||
|--------------------|--------------------o||
|--------------------|---------------------||
|--5---5-5--5-5--5-5-|--5---5-5--5-5--5-5--||
|--5---5-5--5-5--5-5-|--5---5-5--5-5--5-5-o||
|--5---5-5--5-5--5-5-|--5---5-5--5-5--5-5--||
|
| Q Q Q Q Q Q Q Q
|-10-------10--------|-10-------10---------||
|-----10--------10---|-----10--------10---o||
|--------------------|---------------------||
|--------------------|---------------------||
|--------------------|--------------------o||
|--------------------|---------------------||


Outro
H.=H
N.C.
Gtr II
Q Q Q Q Q Q Q Q Q Q Q Q Q Q Q Q
|-----------------|-----------------|---------------|-------------|
|-----------------|-----------------|---------------|-------------|
|-----------------|-----------------|---------------|-------------|
|-----------------|-----------------|---------------|-------------|
|-11------11------|-10------10------|-10-----10-----|-9-----9-----|
|-----10------10--|-----10------10--|-----9------9--|----9-----9--|


Q=100
N.C.
Q Q Q Q Q Q Q Q Q Q Q Q Q Q Q Q
|-------------|-------------|-------------|---------------*|
|-------------|-------------|-------------|---------------*|
|-------------|-------------|-------------|---------------*|
|-------------|-------------|-------------|---------------*|
|-9-----9-----|-7-----7-----|-7-----7-----|-5--(5)--5-----*|
|----7-----7--|----7-----7--|----5-----5--|-----5------5--*|

ACORDES PARA GUITARRA

PIANO UKELELE


COMENTARIOS

Aún no hay comentarios,

¡escribe el primero!

Escribe una pregunta, duda o comentario sobre esta canción, te responderemos a la brevedad.

Las más tocadas de System of a Down

Toca una Canción al Azar de System of a Down